  0
SECTION
  2
HEADER
  9
$ACADVER
  1
AC1015
  9
$ACADMAINTVER
 70
     6
  9
$DWGCODEPAGE
  3
ANSI_1252
  9
$INSBASE
 10
0.0
 20
0.0
 30
0.0
  9
$EXTMIN
 10
-370.3
 20
821.0
 30
0.0
  9
$EXTMAX
 10
-284.2
 20
1103.6
 30
0.0
  9
$LIMMIN
 10
-918.100133
 20
371.449867
  9
$LIMMAX
 10
263.600133
 20
1553.150133
  9
$ORTHOMODE
 70
     0
  9
$REGENMODE
 70
     1
  9
$FILLMODE
 70
     1
  9
$QTEXTMODE
 70
     0
  9
$MIRRTEXT
 70
     1
  9
$LTSCALE
 40
1.0
  9
$ATTMODE
 70
     1
  9
$TEXTSIZE
 40
10.0
  9
$TRACEWID
 40
0.05
  9
$TEXTSTYLE
  7
Standard
  9
$CLAYER
  8
Level 4
  9
$CELTYPE
  6
Continuous
  9
$CECOLOR
 62
     7
  9
$CELTSCALE
 40
1.0
  9
$DISPSILH
 70
     0
  9
$DIMSCALE
 40
1.0
  9
$DIMASZ
 40
0.18
  9
$DIMEXO
 40
0.0625
  9
$DIMDLI
 40
0.38
  9
$DIMRND
 40
0.0
  9
$DIMDLE
 40
0.0
  9
$DIMEXE
 40
0.18
  9
$DIMTP
 40
0.0
  9
$DIMTM
 40
0.0
  9
$DIMTXT
 40
0.18
  9
$DIMCEN
 40
0.09
  9
$DIMTSZ
 40
0.0
  9
$DIMTOL
 70
     0
  9
$DIMLIM
 70
     0
  9
$DIMTIH
 70
     1
  9
$DIMTOH
 70
     1
  9
$DIMSE1
 70
     0
  9
$DIMSE2
 70
     0
  9
$DIMTAD
 70
     0
  9
$DIMZIN
 70
     0
  9
$DIMBLK
  1

  9
$DIMASO
 70
     1
  9
$DIMSHO
 70
     1
  9
$DIMPOST
  1

  9
$DIMAPOST
  1

  9
$DIMALT
 70
     0
  9
$DIMALTD
 70
     2
  9
$DIMALTF
 40
25.4
  9
$DIMLFAC
 40
1.0
  9
$DIMTOFL
 70
     0
  9
$DIMTVP
 40
0.0
  9
$DIMTIX
 70
     0
  9
$DIMSOXD
 70
     0
  9
$DIMSAH
 70
     0
  9
$DIMBLK1
  1

  9
$DIMBLK2
  1

  9
$DIMSTYLE
  2
Standard
  9
$DIMCLRD
 70
     0
  9
$DIMCLRE
 70
     0
  9
$DIMCLRT
 70
     0
  9
$DIMTFAC
 40
1.0
  9
$DIMGAP
 40
0.09
  9
$DIMJUST
 70
     0
  9
$DIMSD1
 70
     0
  9
$DIMSD2
 70
     0
  9
$DIMTOLJ
 70
     1
  9
$DIMTZIN
 70
     0
  9
$DIMALTZ
 70
     0
  9
$DIMALTTZ
 70
     0
  9
$DIMUPT
 70
     0
  9
$DIMDEC
 70
     4
  9
$DIMTDEC
 70
     4
  9
$DIMALTU
 70
     2
  9
$DIMALTTD
 70
     2
  9
$DIMTXSTY
  7
Standard
  9
$DIMAUNIT
 70
     0
  9
$DIMADEC
 70
     0
  9
$DIMALTRND
 40
0.0
  9
$DIMAZIN
 70
     0
  9
$DIMDSEP
 70
    46
  9
$DIMATFIT
 70
     3
  9
$DIMFRAC
 70
     0
  9
$DIMLDRBLK
  1

  9
$DIMLUNIT
 70
     2
  9
$DIMLWD
 70
    -2
  9
$DIMLWE
 70
    -2
  9
$DIMTMOVE
 70
     0
  9
$LUNITS
 70
     2
  9
$LUPREC
 70
     4
  9
$SKETCHINC
 40
0.1
  9
$FILLETRAD
 40
0.5
  9
$AUNITS
 70
     0
  9
$AUPREC
 70
     4
  9
$MENU
  1
.
  9
$ELEVATION
 40
0.0
  9
$PELEVATION
 40
0.0
  9
$THICKNESS
 40
0.0
  9
$LIMCHECK
 70
     0
  9
$CHAMFERA
 40
0.5
  9
$CHAMFERB
 40
0.5
  9
$CHAMFERC
 40
1.0
  9
$CHAMFERD
 40
0.0
  9
$SKPOLY
 70
     0
  9
$TDCREATE
 40
2451789.537468704
  9
$TDUCREATE
 40
2451789.537468704
  9
$TDUPDATE
 40
2451789.537561297
  9
$TDUUPDATE
 40
2451789.537561297
  9
$TDINDWG
 40
0.0000927662
  9
$TDUSRTIMER
 40
0.0000925926
  9
$USRTIMER
 70
     1
  9
$ANGBASE
 50
0.0
  9
$ANGDIR
 70
     0
  9
$PDMODE
 70
     0
  9
$PDSIZE
 40
0.0
  9
$PLINEWID
 40
0.0
  9
$SPLFRAME
 70
     0
  9
$SPLINETYPE
 70
     6
  9
$SPLINESEGS
 70
     8
  9
$HANDSEED
  5
134FC
  9
$SURFTAB1
 70
     6
  9
$SURFTAB2
 70
     6
  9
$SURFTYPE
 70
     6
  9
$SURFU
 70
     6
  9
$SURFV
 70
     6
  9
$UCSBASE
  2

  9
$UCSNAME
  2

  9
$UCSORG
 10
0.0
 20
0.0
 30
0.0
  9
$UCSXDIR
 10
1.0
 20
0.0
 30
0.0
  9
$UCSYDIR
 10
0.0
 20
1.0
 30
0.0
  9
$UCSORTHOREF
  2

  9
$UCSORTHOVIEW
 70
     0
  9
$UCSORGTOP
 10
0.0
 20
0.0
 30
0.0
  9
$UCSORGBOTTOM
 10
0.0
 20
0.0
 30
0.0
  9
$UCSORGLEFT
 10
0.0
 20
0.0
 30
0.0
  9
$UCSORGRIGHT
 10
0.0
 20
0.0
 30
0.0
  9
$UCSORGFRONT
 10
0.0
 20
0.0
 30
0.0
  9
$UCSORGBACK
 10
0.0
 20
0.0
 30
0.0
  9
$PUCSBASE
  2

  9
$PUCSNAME
  2

  9
$PUCSORG
 10
0.0
 20
0.0
 30
0.0
  9
$PUCSXDIR
 10
1.0
 20
0.0
 30
0.0
  9
$PUCSYDIR
 10
0.0
 20
1.0
 30
0.0
  9
$PUCSORTHOREF
  2

  9
$PUCSORTHOVIEW
 70
     0
  9
$PUCSORGTOP
 10
0.0
 20
0.0
 30
0.0
  9
$PUCSORGBOTTOM
 10
0.0
 20
0.0
 30
0.0
  9
$PUCSORGLEFT
 10
0.0
 20
0.0
 30
0.0
  9
$PUCSORGRIGHT
 10
0.0
 20
0.0
 30
0.0
  9
$PUCSORGFRONT
 10
0.0
 20
0.0
 30
0.0
  9
$PUCSORGBACK
 10
0.0
 20
0.0
 30
0.0
  9
$USERI1
 70
     0
  9
$USERI2
 70
     0
  9
$USERI3
 70
     0
  9
$USERI4
 70
     0
  9
$USERI5
 70
     0
  9
$USERR1
 40
0.0
  9
$USERR2
 40
0.0
  9
$USERR3
 40
0.0
  9
$USERR4
 40
0.0
  9
$USERR5
 40
0.0
  9
$WORLDVIEW
 70
     1
  9
$SHADEDGE
 70
     3
  9
$SHADEDIF
 70
    70
  9
$TILEMODE
 70
     1
  9
$MAXACTVP
 70
    64
  9
$PINSBASE
 10
0.0
 20
0.0
 30
0.0
  9
$PLIMCHECK
 70
     0
  9
$PEXTMIN
 10
1.000000E+20
 20
1.000000E+20
 30
1.000000E+20
  9
$PEXTMAX
 10
-1.000000E+20
 20
-1.000000E+20
 30
-1.000000E+20
  9
$PLIMMIN
 10
0.0
 20
0.0
  9
$PLIMMAX
 10
12.0
 20
9.0
  9
$UNITMODE
 70
     0
  9
$VISRETAIN
 70
     1
  9
$PLINEGEN
 70
     0
  9
$PSLTSCALE
 70
     0
  9
$TREEDEPTH
 70
  3020
  9
$CMLSTYLE
  2

  9
$CMLJUST
 70
     0
  9
$CMLSCALE
 40
1.0
  9
$PROXYGRAPHICS
 70
     1
  9
$MEASUREMENT
 70
     0
  9
$CELWEIGHT
370
     0
  9
$ENDCAPS
280
     0
  9
$JOINSTYLE
280
     0
  9
$LWDISPLAY
290
     1
  9
$INSUNITS
 70
     4
  9
$HYPERLINKBASE
  1

  9
$STYLESHEET
  1

  9
$XEDIT
290
     1
  9
$CEPSNTYPE
380
     0
  9
$PSTYLEMODE
290
     1
  9
$FINGERPRINTGUID
  2
{FDEAD576-A652-11D2-9A35-0060089B3A3F}
  9
$VERSIONGUID
  2
{A257D680-BC79-11D2-9A46-0060089B3A3F}
  9
$EXTNAMES
290
     1
  9
$PSVPSCALE
 40
0.0
  9
$OLESTARTUP
290
     0
  0
ENDSEC
  0
SECTION
  2
CLASSES
  0
CLASS
  1
ACDBDICTIONARYWDFLT
  2
AcDbDictionaryWithDefault
  3
AutoCAD 2000
 90
        0
280
     0
281
     0
  0
CLASS
  1
ACDBPLACEHOLDER
  2
AcDbPlaceHolder
  3
ObjectDBX Classes
 90
        0
280
     0
281
     0
  0
CLASS
  1
LAYOUT
  2
AcDbLayout
  3
ObjectDBX Classes
 90
        0
280
     0
281
     0
  0
ENDSEC
  0
SECTION
  2
TABLES
  0
TABLE
  2
VPORT
  5
134D5
330
0
100
AcDbSymbolTable
 70
     3
  0
VPORT
  5
49
330
134D5
100
AcDbSymbolTableRecord
100
AcDbViewportTableRecord
  2
*ACTIVE
 70
     0
 10
0.0
 20
0.0
 11
1.0
 21
1.0
 12
-327.25
 22
962.3
 13
0.0
 23
0.0
 14
4.0
 24
4.0
 15
8.0
 25
8.0
 16
0.0
 26
0.0
 36
1.0
 17
0.0
 27
0.0
 37
0.0
 40
293.904
 41
2.228525
 42
50.0
 43
0.0
 44
0.0
 50
0.0
 51
0.0
 71
     0
 72
   100
 73
     1
 74
     2
 75
     0
 76
     0
 77
     0
 78
     1
281
     0
 65
     1
110
0.0
120
0.0
130
0.0
111
1.0
121
0.0
131
0.0
112
0.0
122
1.0
132
0.0
 79
     0
146
0.0
  0
ENDTAB
  0
TABLE
  2
LTYPE
  5
134D1
330
0
100
AcDbSymbolTable
 70
     2
  0
LTYPE
  5
134D2
330
134D1
100
AcDbSymbolTableRecord
100
AcDbLinetypeTableRecord
  2
ByBlock
 70
     0
  3

 72
    65
 73
     0
 40
0.0
  0
LTYPE
  5
134C3
330
134D1
100
AcDbSymbolTableRecord
100
AcDbLinetypeTableRecord
  2
ByLayer
 70
     0
  3

 72
    65
 73
     0
 40
0.0
  0
LTYPE
  5
134C1
330
134D1
100
AcDbSymbolTableRecord
100
AcDbLinetypeTableRecord
  2
Continuous
 70
     0
  3
Solid line
 72
    65
 73
     0
 40
0.0
  0
LTYPE
  5
1241E
330
134D1
100
AcDbSymbolTableRecord
100
AcDbLinetypeTableRecord
  2
DGN Style 3
 70
     0
  3

 72
    65
 73
     2
 40
5.024242
 49
3.588744
 74
     0
 49
-1.435498
 74
     0
  0
ENDTAB
  0
TABLE
  2
LAYER
  5
134CF
102
{ACAD_XDICTIONARY
360
134E3
102
}
330
0
100
AcDbSymbolTable
 70
    65
  0
LAYER
  5
134BF
330
134CF
100
AcDbSymbolTableRecord
100
AcDbLayerTableRecord
  2
0
 70
     0
 62
     7
  6
Continuous
370
    -3
390
134C0
  0
LAYER
  5
7
330
134CF
100
AcDbSymbolTableRecord
100
AcDbLayerTableRecord
  2
Level 1
 70
     0
 62
     7
  6
Continuous
370
    -3
390
0
  0
LAYER
  5
8
330
134CF
100
AcDbSymbolTableRecord
100
AcDbLayerTableRecord
  2
Level 2
 70
     0
 62
     7
  6
Continuous
370
    -3
390
0
  0
LAYER
  5
9
330
134CF
100
AcDbSymbolTableRecord
100
AcDbLayerTableRecord
  2
Level 3
 70
     0
 62
     7
  6
Continuous
370
    -3
390
0
  0
LAYER
  5
A
330
134CF
100
AcDbSymbolTableRecord
100
AcDbLayerTableRecord
  2
Level 4
 70
     0
 62
     7
  6
Continuous
370
    -3
390
0
  0
LAYER
  5
B
330
134CF
100
AcDbSymbolTableRecord
100
AcDbLayerTableRecord
  2
Level 5
 70
     0
 62
     7
  6
Continuous
370
    -3
390
0
  0
LAYER
  5
C
330
134CF
100
AcDbSymbolTableRecord
100
AcDbLayerTableRecord
  2
Level 6
 70
     0
 62
     7
  6
Continuous
370
    -3
390
0
  0
LAYER
  5
D
330
134CF
100
AcDbSymbolTableRecord
100
AcDbLayerTableRecord
  2
Level 7
 70
     0
 62
     7
  6
Continuous
370
    -3
390
0
  0
LAYER
  5
E
330
134CF
100
AcDbSymbolTableRecord
100
AcDbLayerTableRecord
  2
Level 8
 70
     0
 62
     7
  6
Continuous
370
    -3
390
0
  0
LAYER
  5
F
330
134CF
100
AcDbSymbolTableRecord
100
AcDbLayerTableRecord
  2
Level 9
 70
     0
 62
     7
  6
Continuous
370
    -3
390
0
  0
LAYER
  5
10
330
134CF
100
AcDbSymbolTableRecord
100
AcDbLayerTableRecord
  2
Level 10
 70
     0
 62
     7
  6
Continuous
370
    -3
390
0
  0
LAYER
  5
11
330
134CF
100
AcDbSymbolTableRecord
100
AcDbLayerTableRecord
  2
Level 11
 70
     0
 62
     7
  6
Continuous
370
    -3
390
0
  0
LAYER
  5
12
330
134CF
100
AcDbSymbolTableRecord
100
AcDbLayerTableRecord
  2
Level 12
 70
     0
 62
     7
  6
Continuous
370
    -3
390
0
  0
LAYER
  5
13
330
134CF
100
AcDbSymbolTableRecord
100
AcDbLayerTableRecord
  2
Level 13
 70
     0
 62
     7
  6
Continuous
370
    -3
390
0
  0
LAYER
  5
14
330
134CF
100
AcDbSymbolTableRecord
100
AcDbLayerTableRecord
  2
Level 14
 70
     0
 62
     7
  6
Continuous
370
    -3
390
0
  0
LAYER
  5
15
330
134CF
100
AcDbSymbolTableRecord
100
AcDbLayerTableRecord
  2
Level 15
 70
     0
 62
     7
  6
Continuous
370
    -3
390
0
  0
LAYER
  5
16
330
134CF
100
AcDbSymbolTableRecord
100
AcDbLayerTableRecord
  2
Level 16
 70
     0
 62
     7
  6
Continuous
370
    -3
390
0
  0
LAYER
  5
17
330
134CF
100
AcDbSymbolTableRecord
100
AcDbLayerTableRecord
  2
Level 17
 70
     0
 62
     7
  6
Continuous
370
    -3
390
0
  0
LAYER
  5
18
330
134CF
100
AcDbSymbolTableRecord
100
AcDbLayerTableRecord
  2
Level 18
 70
     0
 62
     7
  6
Continuous
370
    -3
390
0
  0
LAYER
  5
19
330
134CF
100
AcDbSymbolTableRecord
100
AcDbLayerTableRecord
  2
Level 19
 70
     0
 62
     7
  6
Continuous
370
    -3
390
0
  0
LAYER
  5
1A
330
134CF
100
AcDbSymbolTableRecord
100
AcDbLayerTableRecord
  2
Level 20
 70
     0
 62
     7
  6
Continuous
370
    -3
390
0
  0
LAYER
  5
1B
330
134CF
100
AcDbSymbolTableRecord
100
AcDbLayerTableRecord
  2
Level 21
 70
     0
 62
     7
  6
Continuous
370
    -3
390
0
  0
LAYER
  5
1C
330
134CF
100
AcDbSymbolTableRecord
100
AcDbLayerTableRecord
  2
Level 22
 70
     0
 62
     7
  6
Continuous
370
    -3
390
0
  0
LAYER
  5
1D
330
134CF
100
AcDbSymbolTableRecord
100
AcDbLayerTableRecord
  2
Level 23
 70
     0
 62
     7
  6
Continuous
370
    -3
390
0
  0
LAYER
  5
1E
330
134CF
100
AcDbSymbolTableRecord
100
AcDbLayerTableRecord
  2
Level 24
 70
     0
 62
     7
  6
Continuous
370
    -3
390
0
  0
LAYER
  5
1F
330
134CF
100
AcDbSymbolTableRecord
100
AcDbLayerTableRecord
  2
Level 25
 70
     0
 62
     7
  6
Continuous
370
    -3
390
0
  0
LAYER
  5
20
330
134CF
100
AcDbSymbolTableRecord
100
AcDbLayerTableRecord
  2
Level 26
 70
     0
 62
     7
  6
Continuous
370
    -3
390
0
  0
LAYER
  5
21
330
134CF
100
AcDbSymbolTableRecord
100
AcDbLayerTableRecord
  2
Level 27
 70
     0
 62
     7
  6
Continuous
370
    -3
390
0
  0
LAYER
  5
22
330
134CF
100
AcDbSymbolTableRecord
100
AcDbLayerTableRecord
  2
Level 28
 70
     0
 62
     7
  6
Continuous
370
    -3
390
0
  0
LAYER
  5
23
330
134CF
100
AcDbSymbolTableRecord
100
AcDbLayerTableRecord
  2
Level 29
 70
     0
 62
     7
  6
Continuous
370
    -3
390
0
  0
LAYER
  5
24
330
134CF
100
AcDbSymbolTableRecord
100
AcDbLayerTableRecord
  2
Level 30
 70
     0
 62
     7
  6
Continuous
370
    -3
390
0
  0
LAYER
  5
25
330
134CF
100
AcDbSymbolTableRecord
100
AcDbLayerTableRecord
  2
Level 31
 70
     0
 62
     7
  6
Continuous
370
    -3
390
0
  0
LAYER
  5
26
330
134CF
100
AcDbSymbolTableRecord
100
AcDbLayerTableRecord
  2
Level 32
 70
     0
 62
     7
  6
Continuous
370
    -3
390
0
  0
LAYER
  5
27
330
134CF
100
AcDbSymbolTableRecord
100
AcDbLayerTableRecord
  2
Level 33
 70
     0
 62
     7
  6
Continuous
370
    -3
390
0
  0
LAYER
  5
28
330
134CF
100
AcDbSymbolTableRecord
100
AcDbLayerTableRecord
  2
Level 34
 70
     0
 62
     7
  6
Continuous
370
    -3
390
0
  0
LAYER
  5
29
330
134CF
100
AcDbSymbolTableRecord
100
AcDbLayerTableRecord
  2
Level 35
 70
     0
 62
     7
  6
Continuous
370
    -3
390
0
  0
LAYER
  5
2A
330
134CF
100
AcDbSymbolTableRecord
100
AcDbLayerTableRecord
  2
Level 36
 70
     0
 62
     7
  6
Continuous
370
    -3
390
0
  0
LAYER
  5
2B
330
134CF
100
AcDbSymbolTableRecord
100
AcDbLayerTableRecord
  2
Level 37
 70
     0
 62
     7
  6
Continuous
370
    -3
390
0
  0
LAYER
  5
2C
330
134CF
100
AcDbSymbolTableRecord
100
AcDbLayerTableRecord
  2
Level 38
 70
     0
 62
     7
  6
Continuous
370
    -3
390
0
  0
LAYER
  5
2D
330
134CF
100
AcDbSymbolTableRecord
100
AcDbLayerTableRecord
  2
Level 39
 70
     0
 62
     7
  6
Continuous
370
    -3
390
0
  0
LAYER
  5
2E
330
134CF
100
AcDbSymbolTableRecord
100
AcDbLayerTableRecord
  2
Level 40
 70
     0
 62
     7
  6
Continuous
370
    -3
390
0
  0
LAYER
  5
2F
330
134CF
100
AcDbSymbolTableRecord
100
AcDbLayerTableRecord
  2
Level 41
 70
     0
 62
     7
  6
Continuous
370
    -3
390
0
  0
LAYER
  5
30
330
134CF
100
AcDbSymbolTableRecord
100
AcDbLayerTableRecord
  2
Level 42
 70
     0
 62
     7
  6
Continuous
370
    -3
390
0
  0
LAYER
  5
31
330
134CF
100
AcDbSymbolTableRecord
100
AcDbLayerTableRecord
  2
Level 43
 70
     0
 62
     7
  6
Continuous
370
    -3
390
0
  0
LAYER
  5
32
330
134CF
100
AcDbSymbolTableRecord
100
AcDbLayerTableRecord
  2
Level 44
 70
     0
 62
     7
  6
Continuous
370
    -3
390
0
  0
LAYER
  5
33
330
134CF
100
AcDbSymbolTableRecord
100
AcDbLayerTableRecord
  2
Level 45
 70
     0
 62
     7
  6
Continuous
370
    -3
390
0
  0
LAYER
  5
34
330
134CF
100
AcDbSymbolTableRecord
100
AcDbLayerTableRecord
  2
Level 46
 70
     0
 62
     7
  6
Continuous
370
    -3
390
0
  0
LAYER
  5
35
330
134CF
100
AcDbSymbolTableRecord
100
AcDbLayerTableRecord
  2
Level 47
 70
     0
 62
     7
  6
Continuous
370
    -3
390
0
  0
LAYER
  5
36
330
134CF
100
AcDbSymbolTableRecord
100
AcDbLayerTableRecord
  2
Level 48
 70
     0
 62
     7
  6
Continuous
370
    -3
390
0
  0
LAYER
  5
37
330
134CF
100
AcDbSymbolTableRecord
100
AcDbLayerTableRecord
  2
Level 49
 70
     0
 62
     7
  6
Continuous
370
    -3
390
0
  0
LAYER
  5
38
330
134CF
100
AcDbSymbolTableRecord
100
AcDbLayerTableRecord
  2
Level 50
 70
     0
 62
     7
  6
Continuous
370
    -3
390
0
  0
LAYER
  5
39
330
134CF
100
AcDbSymbolTableRecord
100
AcDbLayerTableRecord
  2
Level 51
 70
     0
 62
     7
  6
Continuous
370
    -3
390
0
  0
LAYER
  5
3A
330
134CF
100
AcDbSymbolTableRecord
100
AcDbLayerTableRecord
  2
Level 52
 70
     0
 62
     7
  6
Continuous
370
    -3
390
0
  0
LAYER
  5
3B
330
134CF
100
AcDbSymbolTableRecord
100
AcDbLayerTableRecord
  2
Level 53
 70
     0
 62
     7
  6
Continuous
370
    -3
390
0
  0
LAYER
  5
3C
330
134CF
100
AcDbSymbolTableRecord
100
AcDbLayerTableRecord
  2
Level 54
 70
     0
 62
     7
  6
Continuous
370
    -3
390
0
  0
LAYER
  5
3D
330
134CF
100
AcDbSymbolTableRecord
100
AcDbLayerTableRecord
  2
Level 55
 70
     0
 62
     7
  6
Continuous
370
    -3
390
0
  0
LAYER
  5
3E
330
134CF
100
AcDbSymbolTableRecord
100
AcDbLayerTableRecord
  2
Level 56
 70
     0
 62
     7
  6
Continuous
370
    -3
390
0
  0
LAYER
  5
3F
330
134CF
100
AcDbSymbolTableRecord
100
AcDbLayerTableRecord
  2
Level 57
 70
     0
 62
     7
  6
Continuous
370
    -3
390
0
  0
LAYER
  5
40
330
134CF
100
AcDbSymbolTableRecord
100
AcDbLayerTableRecord
  2
Level 58
 70
     0
 62
     7
  6
Continuous
370
    -3
390
0
  0
LAYER
  5
41
330
134CF
100
AcDbSymbolTableRecord
100
AcDbLayerTableRecord
  2
Level 59
 70
     0
 62
     7
  6
Continuous
370
    -3
390
0
  0
LAYER
  5
42
330
134CF
100
AcDbSymbolTableRecord
100
AcDbLayerTableRecord
  2
Level 60
 70
     0
 62
     7
  6
Continuous
370
    -3
390
0
  0
LAYER
  5
43
330
134CF
100
AcDbSymbolTableRecord
100
AcDbLayerTableRecord
  2
Level 61
 70
     0
 62
     7
  6
Continuous
370
    -3
390
0
  0
LAYER
  5
44
330
134CF
100
AcDbSymbolTableRecord
100
AcDbLayerTableRecord
  2
Level 62
 70
     0
 62
     7
  6
Continuous
370
    -3
390
0
  0
LAYER
  5
45
330
134CF
100
AcDbSymbolTableRecord
100
AcDbLayerTableRecord
  2
Level 63
 70
     0
 62
     7
  6
Continuous
370
    -3
390
0
  0
LAYER
  5
12423
330
134CF
100
AcDbSymbolTableRecord
100
AcDbLayerTableRecord
  2
Level 63 (Construction)
 70
     0
 62
    -7
  6
Continuous
370
    -3
390
0
  0
ENDTAB
  0
TABLE
  2
STYLE
  5
134D0
330
0
100
AcDbSymbolTable
 70
     6
  0
STYLE
  5
123E8
330
134D0
100
AcDbSymbolTableRecord
100
AcDbTextStyleTableRecord
  2
Standard
 70
     0
 40
0.0
 41
1.0
 50
0.0
 71
     0
 42
0.2
  3
txt.shx
  4

  0
STYLE
  5
12418
330
134D0
100
AcDbSymbolTableRecord
100
AcDbTextStyleTableRecord
  2
Style-ENGINEERING
 70
     0
 40
0.0
 41
1.0
 50
0.0
 71
     0
 42
0.2
  3
ENGINEERING.shx
  4

  0
STYLE
  5
1241F
330
134D0
100
AcDbSymbolTableRecord
100
AcDbTextStyleTableRecord
  2
Style-STANDARD
 70
     0
 40
0.0
 41
1.0
 50
0.0
 71
     0
 42
0.2
  3
STANDARD.shx
  4

  0
STYLE
  5
12424
330
134D0
100
AcDbSymbolTableRecord
100
AcDbTextStyleTableRecord
  2
Style-WORKING
 70
     0
 40
0.0
 41
1.0
 50
0.0
 71
     0
 42
0.2
  3
WORKING.shx
  4

  0
STYLE
  5
12F48
330
134D0
100
AcDbSymbolTableRecord
100
AcDbTextStyleTableRecord
  2
Style-txt
 70
     0
 40
0.0
 41
1.0
 50
0.0
 71
     0
 42
0.2
  3
txt.shx
  4

  0
ENDTAB
  0
TABLE
  2
VIEW
  5
134D3
330
0
100
AcDbSymbolTable
 70
     0
  0
ENDTAB
  0
TABLE
  2
UCS
  5
134D4
330
0
100
AcDbSymbolTable
 70
     0
  0
ENDTAB
  0
TABLE
  2
APPID
  5
134D6
330
0
100
AcDbSymbolTable
 70
     1
  0
APPID
  5
134DE
330
134D6
100
AcDbSymbolTableRecord
100
AcDbRegAppTableRecord
  2
ACAD
 70
     0
  0
ENDTAB
  0
TABLE
  2
DIMSTYLE
  5
134D7
330
0
100
AcDbSymbolTable
 70
     2
100
AcDbDimStyleTable
  0
DIMSTYLE
105
123EA
330
134D7
100
AcDbSymbolTableRecord
100
AcDbDimStyleTableRecord
  2
Standard
 70
     0
 42
0.0625
340
123E8
  0
ENDTAB
  0
TABLE
  2
BLOCK_RECORD
  5
134C6
330
0
100
AcDbSymbolTable
 70
    10
  0
BLOCK_RECORD
  5
134C7
330
134C6
100
AcDbSymbolTableRecord
100
AcDbBlockTableRecord
  2
*Model_Space
340
134CA
  0
BLOCK_RECORD
  5
134CB
330
134C6
100
AcDbSymbolTableRecord
100
AcDbBlockTableRecord
  2
*Paper_Space
340
134CE
  0
BLOCK_RECORD
  5
9618
330
134C6
100
AcDbSymbolTableRecord
100
AcDbBlockTableRecord
  2
CONCRT
340
0
  0
BLOCK_RECORD
  5
BED1
330
134C6
100
AcDbSymbolTableRecord
100
AcDbBlockTableRecord
  2
WOOD1
340
0
  0
BLOCK_RECORD
  5
1241B
330
134C6
100
AcDbSymbolTableRecord
100
AcDbBlockTableRecord
  2
*U3
340
0
  0
BLOCK_RECORD
  5
12420
330
134C6
100
AcDbSymbolTableRecord
100
AcDbBlockTableRecord
  2
*U4
340
0
  0
BLOCK_RECORD
  5
1242B
330
134C6
100
AcDbSymbolTableRecord
100
AcDbBlockTableRecord
  2
block 4
340
0
102
{BLKREFS
331
8A7
102
}
  0
BLOCK_RECORD
  5
1242E
330
134C6
100
AcDbSymbolTableRecord
100
AcDbBlockTableRecord
  2
block 5
340
0
102
{BLKREFS
331
906
102
}
  0
BLOCK_RECORD
  5
12431
330
134C6
100
AcDbSymbolTableRecord
100
AcDbBlockTableRecord
  2
block 6
340
0
102
{BLKREFS
331
955
102
}
  0
BLOCK_RECORD
  5
12428
330
134C6
100
AcDbSymbolTableRecord
100
AcDbBlockTableRecord
  2
block 3
340
0
102
{BLKREFS
331
8A6
102
}
  0
BLOCK_RECORD
  5
12425
330
134C6
100
AcDbSymbolTableRecord
100
AcDbBlockTableRecord
  2
New Logo
340
0
  0
ENDTAB
  0
ENDSEC
  0
SECTION
  2
BLOCKS
  0
BLOCK
  5
134C8
330
134C7
100
AcDbEntity
  8
0
100
AcDbBlockBegin
  2
*Model_Space
 70
     0
 10
0.0
 20
0.0
 30
0.0
  3
*Model_Space
  1

  0
ENDBLK
  5
134C9
330
134C7
100
AcDbEntity
  8
0
100
AcDbBlockEnd
  0
BLOCK
  5
134CC
330
134CB
100
AcDbEntity
 67
     1
  8
0
100
AcDbBlockBegin
  2
*Paper_Space
 70
     0
 10
0.0
 20
0.0
 30
0.0
  3
*Paper_Space
  1

  0
ENDBLK
  5
134CD
330
134CB
100
AcDbEntity
 67
     1
  8
0
100
AcDbBlockEnd
  0
BLOCK
  5
134E5
330
9618
100
AcDbEntity
  8
0
100
AcDbBlockBegin
  2
CONCRT
 70
     0
 10
0.0
 20
0.0
 30
0.0
  3
CONCRT
  1

  0
LWPOLYLINE
  5
9619
330
9618
100
AcDbEntity
  8
0
  6
Continuous
 62
     1
100
AcDbPolyline
 90
        4
 70
   128
 43
0.0
 10
-266.73
 20
-71.36
 10
-224.11
 20
17.45
 10
-153.07
 20
-35.84
 10
-266.73
 20
-71.36
  0
LWPOLYLINE
  5
961A
330
9618
100
AcDbEntity
  8
0
  6
Continuous
 62
     1
100
AcDbPolyline
 90
        4
 70
   128
 43
0.0
 10
235.75
 20
-436.74
 10
263.91
 20
-233.72
 10
391.11
 20
-365.08
 10
239.08
 20
-435.53
  0
LWPOLYLINE
  5
961B
330
9618
100
AcDbEntity
  8
0
  6
Continuous
 62
     1
100
AcDbPolyline
 90
        4
 70
   128
 43
0.0
 10
-640.39
 20
406.34
 10
-544.49
 20
587.49
 10
-469.89
 20
420.55
 10
-636.84
 20
406.34
  0
LINE
  5
961C
330
9618
100
AcDbEntity
  8
0
  6
Continuous
 62
     1
100
AcDbLine
 10
283.14
 20
274.91
 30
0.0
 11
297.35
 21
253.59
 31
0.0
  0
LINE
  5
961D
330
9618
100
AcDbEntity
  8
0
  6
Continuous
 62
     1
100
AcDbLine
 10
680.97
 20
583.93
 30
0.0
 11
695.18
 21
615.9
 31
0.0
  0
LINE
  5
961E
330
9618
100
AcDbEntity
  8
0
  6
Continuous
 62
     1
100
AcDbLine
 10
126.85
 20
-812.02
 30
0.0
 11
141.06
 21
-780.05
 31
0.0
  0
LINE
  5
961F
330
9618
100
AcDbEntity
  8
0
  6
Continuous
 62
     1
100
AcDbLine
 10
-196.39
 20
-399.99
 30
0.0
 11
-182.18
 21
-368.02
 31
0.0
  0
LINE
  5
9620
330
9618
100
AcDbEntity
  8
0
  6
Continuous
 62
     1
100
AcDbLine
 10
648.12
 20
-489.21
 30
0.0
 11
651.68
 21
-521.17
 31
0.0
  0
LINE
  5
9621
330
9618
100
AcDbEntity
  8
0
  6
Continuous
 62
     1
100
AcDbLine
 10
-160.87
 20
502.24
 30
0.0
 11
-146.66
 21
534.21
 31
0.0
  0
LINE
  5
9622
330
9618
100
AcDbEntity
  8
0
  6
Continuous
 62
     1
100
AcDbLine
 10
-736.3
 20
-254.35
 30
0.0
 11
-722.09
 21
-222.38
 31
0.0
  0
LWPOLYLINE
  5
9623
330
9618
100
AcDbEntity
  8
0
  6
Continuous
 62
     1
100
AcDbPolyline
 90
        4
 70
   128
 43
0.0
 10
-729.19
 20
-627.32
 10
-686.57
 20
-538.51
 10
-615.53
 20
-591.8
 10
-729.19
 20
-627.32
  0
LWPOLYLINE
  5
9624
330
9618
100
AcDbEntity
  8
0
  6
Continuous
 62
     1
100
AcDbPolyline
 90
        4
 70
   128
 43
0.0
 10
656.11
 20
182.55
 10
698.73
 20
271.36
 10
769.77
 20
218.07
 10
656.11
 20
182.55
  0
LINE
  5
9625
330
9618
100
AcDbEntity
  8
0
  6
Continuous
 62
     1
100
AcDbLine
 10
-796.72
 20
839.14
 30
0.0
 11
-782.51
 21
817.82
 31
0.0
  0
LINE
  5
9626
330
9618
100
AcDbEntity
  8
0
  6
Continuous
 62
     1
100
AcDbLine
 10
890.57
 20
847.24
 30
0.0
 11
904.78
 21
825.92
 31
0.0
  0
ENDBLK
  5
134E6
330
9618
100
AcDbEntity
  8
0
100
AcDbBlockEnd
  0
BLOCK
  5
134E7
330
BED1
100
AcDbEntity
  8
0
100
AcDbBlockBegin
  2
WOOD1
 70
     0
 10
0.0
 20
0.0
 30
0.0
  3
WOOD1
  1

  0
LWPOLYLINE
  5
BED2
330
BED1
100
AcDbEntity
  8
0
  6
Continuous
 62
     6
370
    13
100
AcDbPolyline
 90
        3
 70
   128
 43
0.0
 10
69.3
 20
0.0
 10
38.89
 20
34.09
 10
0.0
 20
101.97
  0
LWPOLYLINE
  5
BED3
330
BED1
100
AcDbEntity
  8
0
  6
Continuous
 62
     6
370
    13
100
AcDbPolyline
 90
        6
 70
   128
 43
0.0
 10
134.74
 20
0.0
 10
87.6
 20
63.75
 10
60.72
 20
110.09
 10
27.13
 20
150.88
 10
20.41
 20
173.12
 10
0.0
 20
205.38
  0
LWPOLYLINE
  5
BED4
330
BED1
100
AcDbEntity
  8
0
  6
Continuous
 62
     6
370
    13
100
AcDbPolyline
 90
        6
 70
   128
 43
0.0
 10
141.35
 20
0.0
 10
80.88
 20
110.09
 10
40.57
 20
156.44
 10
37.21
 20
174.98
 10
23.77
 20
204.64
 10
0.0
 20
234.03
  0
LWPOLYLINE
  5
BED5
330
BED1
100
AcDbEntity
  8
0
  6
Continuous
 62
     6
370
    13
100
AcDbPolyline
 90
        8
 70
   128
 43
0.0
 10
0.81
 20
378.64
 10
37.21
 20
308.45
 10
40.57
 20
289.91
 10
69.12
 20
271.37
 10
89.28
 20
247.27
 10
132.95
 20
163.85
 10
176.61
 20
78.58
 10
231.26
 20
0.0
  0
LWPOLYLINE
  5
BED6
330
BED1
100
AcDbEntity
  8
0
  6
Continuous
 62
     6
370
    13
100
AcDbPolyline
 90
        8
 70
   128
 43
0.0
 10
0.0
 20
488.95
 10
42.25
 20
419.68
 10
67.44
 20
364.06
 10
99.35
 20
312.16
 10
169.9
 20
182.39
 10
201.81
 20
145.32
 10
257.23
 20
86.0
 10
310.28
 20
0.0
  0
LWPOLYLINE
  5
BED7
330
BED1
100
AcDbEntity
  8
0
  6
Continuous
 62
     6
370
    13
100
AcDbPolyline
 90
        8
 70
   128
 43
0.0
 10
346.08
 20
0.0
 10
275.71
 20
128.63
 10
220.28
 20
236.15
 10
169.9
 20
308.45
 10
116.15
 20
375.19
 10
97.67
 20
423.38
 10
42.25
 20
480.85
 10
0.0
 20
534.89
  0
LWPOLYLINE
  5
BED8
330
BED1
100
AcDbEntity
  8
0
  6
Continuous
 62
     6
370
    13
100
AcDbPolyline
 90
        6
 70
   128
 43
0.0
 10
67.44
 20
419.68
 10
129.59
 20
312.16
 10
196.77
 20
191.66
 10
250.52
 20
123.07
 10
195.09
 20
221.32
 10
67.44
 20
415.97
  0
LWPOLYLINE
  5
BED9
330
BED1
100
AcDbEntity
  8
0
  6
Continuous
 62
     6
370
    13
100
AcDbPolyline
 90
        5
 70
   128
 43
0.0
 10
287.47
 20
295.47
 10
274.03
 20
315.86
 10
235.4
 20
362.21
 10
252.2
 20
323.28
 10
282.43
 20
295.47
  0
LWPOLYLINE
  5
BEDA
330
BED1
100
AcDbEntity
  8
0
  6
Continuous
 62
     6
370
    13
100
AcDbPolyline
 90
        9
 70
   128
 43
0.0
 10
428.23
 20
0.0
 10
371.45
 20
104.53
 10
337.85
 20
162.0
 10
321.06
 20
226.88
 10
304.26
 20
254.69
 10
342.89
 20
199.08
 10
406.72
 20
123.07
 10
455.42
 20
43.36
 10
480.57
 20
0.0
  0
LWPOLYLINE
  5
BEDB
330
BED1
100
AcDbEntity
  8
0
  6
Continuous
 62
     6
370
    13
100
AcDbPolyline
 90
        4
 70
   128
 43
0.0
 10
450.08
 20
0.0
 10
384.88
 20
121.22
 10
352.97
 20
160.15
 10
347.93
 20
169.42
  0
LWPOLYLINE
  5
BEDC
330
BED1
100
AcDbEntity
  8
0
  6
Continuous
 62
     6
370
    13
100
AcDbPolyline
 90
       10
 70
   128
 43
0.0
 10
0.0
 20
667.45
 10
54.0
 20
593.93
 10
62.4
 20
569.83
 10
82.56
 20
560.56
 10
90.96
 20
527.2
 10
109.43
 20
523.49
 10
148.06
 20
464.17
 10
195.09
 20
408.55
 10
198.45
 20
391.87
 10
215.24
 20
382.6
  0
LWPOLYLINE
  5
BEDD
330
BED1
100
AcDbEntity
  8
0
  6
Continuous
 62
     6
370
    13
100
AcDbPolyline
 90
       12
 70
   128
 43
0.0
 10
0.0
 20
742.08
 10
42.25
 20
686.62
 10
37.21
 20
673.65
 10
55.68
 20
658.82
 10
65.76
 20
627.3
 10
69.12
 20
603.2
 10
84.24
 20
595.79
 10
95.99
 20
588.37
 10
99.35
 20
567.98
 10
117.83
 20
542.03
 10
141.34
 20
510.51
 10
185.01
 20
427.09
  0
LWPOLYLINE
  5
BEDE
330
BED1
100
AcDbEntity
  8
0
  6
Continuous
 62
     6
370
    13
100
AcDbPolyline
 90
        4
 70
   128
 43
0.0
 10
0.0
 20
700.85
 10
32.17
 20
651.4
 10
43.93
 20
640.28
 10
57.36
 20
606.91
  0
LWPOLYLINE
  5
BEDF
330
BED1
100
AcDbEntity
  8
0
  6
Continuous
 62
     6
370
    13
100
AcDbPolyline
 90
       13
 70
   128
 43
0.0
 10
0.0
 20
862.78
 10
57.67
 20
788.05
 10
83.21
 20
734.5
 10
116.41
 20
669.67
 10
177.7
 20
604.84
 10
246.65
 20
483.63
 10
295.18
 20
418.8
 10
356.47
 20
297.6
 10
389.67
 20
289.14
 10
476.5
 20
167.94
 10
514.81
 20
66.46
 10
540.34
 20
72.1
 10
600.73
 20
0.0
  0
LWPOLYLINE
  5
BEE0
330
BED1
100
AcDbEntity
  8
0
  6
Continuous
 62
     6
370
    13
100
AcDbPolyline
 90
       20
 70
   128
 43
0.0
 10
0.0
 20
949.73
 10
47.45
 20
861.34
 10
80.65
 20
830.33
 10
93.42
 20
771.14
 10
126.62
 20
745.77
 10
131.73
 20
717.59
 10
141.95
 20
692.22
 10
172.59
 20
680.94
 10
198.13
 20
621.75
 10
274.74
 20
531.55
 10
290.07
 20
486.45
 10
351.36
 20
410.35
 10
384.56
 20
337.06
 10
422.87
 20
314.51
 10
433.08
 20
272.23
 10
473.94
 20
210.22
 10
522.47
 20
148.21
 10
519.91
 20
125.66
 10
540.34
 20
97.47
 10
615.0
 20
0.0
  0
LWPOLYLINE
  5
BEE1
330
BED1
100
AcDbEntity
  8
0
  6
Continuous
 62
     6
370
    13
100
AcDbPolyline
 90
       17
 70
   128
 43
0.0
 10
69.3
 20
960.0
 10
113.85
 20
889.53
 10
159.82
 20
830.33
 10
164.93
 20
782.42
 10
203.24
 20
742.95
 10
213.45
 20
680.94
 10
246.65
 20
627.39
 10
274.74
 20
590.74
 10
318.16
 20
500.54
 10
369.24
 20
458.26
 10
422.87
 20
348.33
 10
445.85
 20
328.6
 10
468.84
 20
263.77
 10
537.79
 20
201.76
 10
581.2
 20
94.65
 10
622.07
 20
66.46
 10
667.94
 20
0.0
  0
LWPOLYLINE
  5
BEE2
330
BED1
100
AcDbEntity
  8
0
  6
Continuous
 62
     6
370
    13
100
AcDbPolyline
 90
        8
 70
   128
 43
0.0
 10
134.74
 20
960.0
 10
177.7
 20
883.89
 10
187.91
 20
864.16
 10
205.79
 20
847.25
 10
223.67
 20
807.78
 10
190.47
 20
892.35
 10
170.04
 20
912.08
 10
141.35
 20
960.0
  0
LWPOLYLINE
  5
BEE3
330
BED1
100
AcDbEntity
  8
0
  6
Continuous
 62
     6
370
    13
100
AcDbPolyline
 90
       13
 70
   128
 43
0.0
 10
714.51
 20
0.0
 10
624.62
 20
136.93
 10
576.1
 20
218.67
 10
545.45
 20
297.6
 10
537.79
 20
286.32
 10
507.14
 20
370.88
 10
468.84
 20
401.89
 10
448.41
 20
461.08
 10
407.54
 20
511.82
 10
369.24
 20
548.46
 10
359.02
 20
604.84
 10
305.39
 20
700.67
 10
264.53
 20
757.05
  0
LWPOLYLINE
  5
BEE4
330
BED1
100
AcDbEntity
  8
0
  6
Continuous
 62
     6
370
    13
100
AcDbPolyline
 90
       11
 70
   128
 43
0.0
 10
290.07
 20
717.59
 10
366.68
 20
635.84
 10
407.54
 20
582.29
 10
453.51
 20
528.73
 10
504.59
 20
452.63
 10
578.65
 20
404.71
 10
627.17
 20
328.6
 10
683.62
 20
257.54
 10
775.3
 20
142.57
 10
821.27
 20
69.28
 10
883.7
 20
0.0
  0
LWPOLYLINE
  5
BEE5
330
BED1
100
AcDbEntity
  8
0
  6
Continuous
 62
     6
370
    13
100
AcDbPolyline
 90
       14
 70
   128
 43
0.0
 10
714.0
 20
83.38
 10
668.04
 20
148.21
 10
619.51
 20
227.13
 10
591.42
 20
266.59
 10
578.65
 20
297.6
 10
553.11
 20
356.79
 10
586.31
 20
300.42
 10
619.51
 20
272.23
 10
652.71
 20
244.04
 10
678.25
 20
193.31
 10
698.68
 20
131.29
 10
726.77
 20
100.29
 10
726.77
 20
69.28
 10
739.54
 20
41.1
  0
LWPOLYLINE
  5
BEE6
330
BED1
100
AcDbEntity
  8
0
  6
Continuous
 62
     6
370
    13
100
AcDbPolyline
 90
        3
 70
   128
 43
0.0
 10
650.16
 20
204.58
 10
634.84
 20
235.59
 10
622.07
 20
249.68
  0
LWPOLYLINE
  5
BEE7
330
BED1
100
AcDbEntity
  8
0
  6
Continuous
 62
     6
370
    13
100
AcDbPolyline
 90
        6
 70
   128
 43
0.0
 10
960.0
 20
101.97
 10
721.67
 20
452.63
 10
624.62
 20
545.64
 10
583.76
 20
633.02
 10
464.07
 20
738.14
 10
310.28
 20
960.0
  0
LWPOLYLINE
  5
BEE8
330
BED1
100
AcDbEntity
  8
0
  6
Continuous
 62
     6
370
    13
100
AcDbPolyline
 90
        5
 70
   128
 43
0.0
 10
346.08
 20
960.0
 10
425.42
 20
852.88
 10
481.61
 20
762.68
 10
522.47
 20
745.77
 10
537.79
 20
723.22
  0
LWPOLYLINE
  5
BEE9
330
BED1
100
AcDbEntity
  8
0
  6
Continuous
 62
     6
370
    13
100
AcDbPolyline
 90
        8
 70
   128
 43
0.0
 10
960.0
 20
205.38
 10
698.68
 20
571.01
 10
642.5
 20
630.21
 10
601.64
 20
717.59
 10
527.57
 20
810.6
 10
453.51
 20
878.25
 10
453.51
 20
926.17
 10
428.23
 20
960.0
  0
LWPOLYLINE
  5
BEEA
330
BED1
100
AcDbEntity
  8
0
  6
Continuous
 62
     6
370
    13
100
AcDbPolyline
 90
        7
 70
   128
 43
0.0
 10
450.08
 20
960.0
 10
489.27
 20
909.26
 10
489.27
 20
892.35
 10
507.14
 20
858.52
 10
527.57
 20
852.88
 10
570.99
 20
790.87
 10
619.51
 20
720.4
  0
LWPOLYLINE
  5
BEEB
330
BED1
100
AcDbEntity
  8
0
  6
Continuous
 62
     6
370
    13
100
AcDbPolyline
 90
       10
 70
   128
 43
0.0
 10
480.57
 20
960.0
 10
519.91
 20
886.71
 10
553.11
 20
855.7
 10
629.73
 20
742.95
 10
685.91
 20
652.75
 10
736.99
 20
576.65
 10
798.28
 20
489.27
 10
836.59
 20
407.53
 10
892.77
 20
356.79
 10
960.0
 20
234.03
  0
LWPOLYLINE
  5
BEEC
330
BED1
100
AcDbEntity
  8
0
  6
Continuous
 62
     6
370
    13
100
AcDbPolyline
 90
        5
 70
   128
 43
0.0
 10
341.1
 20
752.11
 10
327.66
 20
772.5
 10
289.03
 20
818.85
 10
305.83
 20
779.92
 10
336.06
 20
752.11
  0
LWPOLYLINE
  5
BEED
330
BED1
100
AcDbEntity
  8
0
  6
Continuous
 62
     6
370
    13
100
AcDbPolyline
 90
        6
 70
   128
 43
0.0
 10
870.28
 20
551.64
 10
813.6
 20
630.21
 10
795.73
 20
669.67
 10
708.9
 20
776.78
 10
675.7
 20
850.06
 10
600.73
 20
960.0
  0
LWPOLYLINE
  5
BEEE
330
BED1
100
AcDbEntity
  8
0
  6
Continuous
 62
     6
370
    13
100
AcDbPolyline
 90
        7
 70
   128
 43
0.0
 10
615.0
 20
960.0
 10
698.68
 20
855.7
 10
734.43
 20
776.78
 10
790.62
 20
726.04
 10
826.37
 20
672.49
 10
862.13
 20
604.84
 10
960.0
 20
488.95
  0
LWPOLYLINE
  5
BEEF
330
BED1
100
AcDbEntity
  8
0
  6
Continuous
 62
     6
370
    13
100
AcDbPolyline
 90
        7
 70
   128
 43
0.0
 10
960.0
 20
534.89
 10
885.11
 20
618.93
 10
831.48
 20
717.59
 10
785.51
 20
776.78
 10
754.87
 20
796.51
 10
729.33
 20
883.89
 10
667.94
 20
960.0
  0
LWPOLYLINE
  5
BEF0
330
BED1
100
AcDbEntity
  8
0
  6
Continuous
 62
     6
370
    13
100
AcDbPolyline
 90
        8
 70
   128
 43
0.0
 10
714.51
 20
960.0
 10
777.85
 20
886.71
 10
790.62
 20
835.97
 10
813.6
 20
807.78
 10
841.7
 20
793.69
 10
892.77
 20
714.77
 10
938.74
 20
686.58
 10
960.0
 20
667.45
  0
LWPOLYLINE
  5
BEF1
330
BED1
100
AcDbEntity
  8
0
  6
Continuous
 62
     6
370
    13
100
AcDbPolyline
 90
        5
 70
   128
 43
0.0
 10
960.0
 20
700.85
 10
928.53
 20
742.95
 10
900.43
 20
765.5
 10
874.9
 20
810.6
 10
849.36
 20
841.61
  0
LWPOLYLINE
  5
BEF2
330
BED1
100
AcDbEntity
  8
0
  6
Continuous
 62
     6
370
    13
100
AcDbPolyline
 90
        5
 70
   128
 43
0.0
 10
960.0
 20
742.08
 10
923.42
 20
790.87
 10
897.88
 20
841.61
 10
849.36
 20
897.98
 10
839.14
 20
914.89
  0
LWPOLYLINE
  5
BEF3
330
BED1
100
AcDbEntity
  8
0
  6
Continuous
 62
     6
370
    13
100
AcDbPolyline
 90
        4
 70
   128
 43
0.0
 10
960.0
 20
862.78
 10
918.31
 20
903.62
 10
908.1
 20
943.08
 10
883.7
 20
960.0
  0
LWPOLYLINE
  5
BEF4
330
BED1
100
AcDbEntity
  8
0
  6
Continuous
 62
     6
370
    13
100
AcDbPolyline
 90
       14
 70
   128
 43
0.0
 10
951.69
 20
0.0
 10
834.03
 20
145.39
 10
785.51
 20
227.13
 10
724.22
 20
289.14
 10
662.93
 20
401.89
 10
637.39
 20
430.08
 10
588.87
 20
463.9
 10
548.01
 20
548.46
 10
458.62
 20
627.39
 10
415.21
 20
723.22
 10
328.38
 20
852.88
 10
284.96
 20
872.61
 10
259.42
 20
917.71
 10
231.26
 20
960.0
  0
ENDBLK
  5
134E8
330
BED1
100
AcDbEntity
  8
0
100
AcDbBlockEnd
  0
BLOCK
  5
134E9
330
1241B
100
AcDbEntity
  8
0
100
AcDbBlockBegin
  2
*U3
 70
     1
 10
0.0
 20
0.0
 30
0.0
  3
*U3
  1

  0
LINE
  5
122AF
330
1241B
100
AcDbEntity
  8
Level 4
  6
Continuous
 62
     7
370
     0
100
AcDbLine
 10
13.399046
 20
77.495466
 30
0.0
 11
32.499046
 21
77.495466
 31
0.0
  0
LINE
  5
122B0
330
1241B
100
AcDbEntity
  8
Level 4
  6
Continuous
 62
     7
370
     0
100
AcDbLine
 10
13.399046
 20
-77.504534
 30
0.0
 11
32.499046
 21
-77.504534
 31
0.0
  0
LINE
  5
122B1
330
1241B
100
AcDbEntity
  8
Level 4
  6
Continuous
 62
     7
370
     0
100
AcDbLine
 10
34.499046
 20
36.495466
 30
0.0
 11
34.499046
 21
-36.504534
 31
0.0
  0
LINE
  5
122B2
330
1241B
100
AcDbEntity
  8
Level 4
  6
Continuous
 62
     7
370
     0
100
AcDbLine
 10
32.499046
 20
77.495466
 30
0.0
 11
32.499046
 21
-77.504534
 31
0.0
  0
LINE
  5
122B3
330
1241B
100
AcDbEntity
  8
Level 4
  6
Continuous
 62
     7
370
     0
100
AcDbLine
 10
13.399046
 20
77.495466
 30
0.0
 11
13.399046
 21
-77.504534
 31
0.0
  0
LINE
  5
122B4
330
1241B
100
AcDbEntity
  8
Level 4
  6
Continuous
 62
     7
370
     0
100
AcDbLine
 10
-34.500954
 20
22.975466
 30
0.0
 11
-34.500954
 21
-22.984534
 31
0.0
  0
LINE
  5
122B5
330
1241B
100
AcDbEntity
  8
Level 4
  6
Continuous
 62
     7
370
     0
100
AcDbLine
 10
-33.825454
 20
24.145466
 30
0.0
 11
-27.425454
 21
24.145466
 31
0.0
  0
LINE
  5
122B6
330
1241B
100
AcDbEntity
  8
Level 4
  6
Continuous
 62
     7
370
     0
100
AcDbLine
 10
-33.825454
 20
-24.154534
 30
0.0
 11
-27.425454
 21
-24.154534
 31
0.0
  0
LINE
  5
122B7
330
1241B
100
AcDbEntity
  8
Level 4
  6
DGN Style 3
 62
     7
370
     0
100
AcDbLine
 10
-34.500954
 20
21.375466
 30
0.0
 11
34.499046
 21
21.375466
 31
0.0
  0
LINE
  5
122B8
330
1241B
100
AcDbEntity
  8
Level 4
  6
DGN Style 3
 62
     7
370
     0
100
AcDbLine
 10
-34.500954
 20
-21.384534
 30
0.0
 11
34.499046
 21
-21.384534
 31
0.0
  0
LINE
  5
122BB
330
1241B
100
AcDbEntity
  8
Level 4
  6
Continuous
 62
     7
370
     0
100
AcDbLine
 10
-34.500954
 20
22.975466
 30
0.0
 11
-33.825454
 21
24.145466
 31
0.0
  0
LINE
  5
122BC
330
1241B
100
AcDbEntity
  8
Level 4
  6
Continuous
 62
     7
370
     0
100
AcDbLine
 10
-33.825454
 20
24.145466
 30
0.0
 11
-33.825454
 21
-24.154534
 31
0.0
  0
LINE
  5
122BD
330
1241B
100
AcDbEntity
  8
Level 4
  6
Continuous
 62
     7
370
     0
100
AcDbLine
 10
-27.425454
 20
24.145466
 30
0.0
 11
-27.425454
 21
-24.154534
 31
0.0
  0
LINE
  5
122BF
330
1241B
100
AcDbEntity
  8
Level 4
  6
Continuous
 62
     7
370
     0
100
AcDbLine
 10
-27.425454
 20
24.145466
 30
0.0
 11
9.683321
 21
34.007932
 31
0.0
  0
LINE
  5
122C0
330
1241B
100
AcDbEntity
  8
Level 4
  6
Continuous
 62
     7
370
     0
100
AcDbLine
 10
32.499046
 20
36.495466
 30
0.0
 11
34.499046
 21
36.495466
 31
0.0
  0
LINE
  5
122C1
330
1241B
100
AcDbEntity
  8
Level 4
  6
Continuous
 62
     7
370
     0
100
AcDbLine
 10
32.499046
 20
-36.504534
 30
0.0
 11
34.499046
 21
-36.504534
 31
0.0
  0
LINE
  5
122C2
330
1241B
100
AcDbEntity
  8
Level 4
  6
Continuous
 62
     7
370
     0
100
AcDbLine
 10
-34.500954
 20
-22.984534
 30
0.0
 11
-33.825454
 21
-24.154534
 31
0.0
  0
LINE
  5
122C3
330
1241B
100
AcDbEntity
  8
Level 4
  6
Continuous
 62
     7
370
     0
100
AcDbLine
 10
-27.425454
 20
-24.154534
 30
0.0
 11
9.683321
 21
-34.016999
 31
0.0
  0
ARC
  5
122C4
330
1241B
100
AcDbEntity
  8
Level 4
  6
Continuous
 62
     7
370
     0
100
AcDbCircle
 10
-8.399046
 20
-38.849248
 30
0.0
 40
5.0
210
0.0
220
0.0
230
-1.0
100
AcDbArc
 50
104.883537
 51
180.0
  0
ARC
  5
122C5
330
1241B
100
AcDbEntity
  8
Level 4
  6
Continuous
 62
     7
370
     0
100
AcDbCircle
 10
8.399046
 20
38.840181
 30
0.0
 40
5.0
100
AcDbArc
 50
284.883537
 51
0.0
  0
ENDBLK
  5
134EA
330
1241B
100
AcDbEntity
  8
0
100
AcDbBlockEnd
  0
BLOCK
  5
134EB
330
12420
100
AcDbEntity
  8
0
100
AcDbBlockBegin
  2
*U4
 70
     1
 10
0.0
 20
0.0
 30
0.0
  3
*U4
  1

  0
LWPOLYLINE
  5
6E3
330
12420
100
AcDbEntity
  8
Level 61
  6
Continuous
 62
     7
370
    40
100
AcDbPolyline
 90
       30
 70
   129
 43
0.0
 10
45.02
 20
-3.7
 10
44.91
 20
-2.18
 10
43.25
 20
-0.72
 10
43.39
 20
0.73
 10
45.42
 20
-1.55
 10
43.44
 20
0.99
 10
44.26
 20
2.51
 10
46.14
 20
-1.04
 10
44.53
 20
2.76
 10
45.67
 20
3.58
 10
46.92
 20
-0.75
 10
46.05
 20
3.77
 10
47.49
 20
4.09
 10
47.68
 20
-0.64
 10
47.87
 20
4.09
 10
49.33
 20
3.77
 10
48.5
 20
-0.75
 10
49.66
 20
3.65
 10
50.85
 20
2.76
 10
49.28
 20
-1.05
 10
51.1
 20
2.51
 10
51.94
 20
0.99
 10
49.98
 20
-1.53
 10
51.99
 20
0.73
 10
52.13
 20
-0.72
 10
50.47
 20
-2.18
 10
50.34
 20
-3.7
 10
48.14
 20
-3.7
 10
47.68
 20
-4.08
 10
47.24
 20
-3.7
  0
LWPOLYLINE
  5
6E4
330
12420
100
AcDbEntity
  8
Level 61
  6
Continuous
 62
     7
370
    40
100
AcDbPolyline
 90
        9
 70
   128
 43
0.0
 10
52.75
 20
-1.1
 10
51.1
 20
-2.5
 10
50.91
 20
-4.27
 10
48.33
 20
-4.27
 10
47.68
 20
-4.78
 10
47.11
 20
-4.27
 10
44.45
 20
-4.27
 10
44.26
 20
-2.5
 10
42.63
 20
-1.1
  0
LWPOLYLINE
  5
6E5
330
12420
100
AcDbEntity
  8
Level 61
  6
Continuous
 62
     7
370
    40
100
AcDbPolyline
 90
        9
 70
   128
 43
0.0
 10
52.51
 20
-1.04
 10
50.91
 20
-2.37
 10
50.72
 20
-4.08
 10
48.19
 20
-4.08
 10
47.68
 20
-4.52
 10
47.19
 20
-4.08
 10
44.64
 20
-4.08
 10
44.45
 20
-2.37
 10
42.87
 20
-1.04
  0
LWPOLYLINE
  5
6E6
330
12420
100
AcDbEntity
  8
Level 61
  6
Continuous
 62
     7
370
    40
100
AcDbPolyline
 90
        9
 70
   128
 43
0.0
 10
52.24
 20
-0.98
 10
50.72
 20
-2.24
 10
50.53
 20
-3.89
 10
48.14
 20
-3.89
 10
47.68
 20
-4.27
 10
47.19
 20
-3.89
 10
44.83
 20
-3.89
 10
44.72
 20
-2.31
 10
43.12
 20
-0.98
  0
ARC
  5
6E7
330
12420
100
AcDbEntity
  8
Level 61
  6
Continuous
 62
     7
370
    30
100
AcDbCircle
 10
47.685845
 20
-0.373682
 30
0.0
 40
5.351131500000001
100
AcDbArc
 50
350.0905
 51
189.909494
  0
LWPOLYLINE
  5
6E8
330
12420
100
AcDbEntity
  8
Level 61
  6
Continuous
 62
     7
370
    40
100
AcDbPolyline
 90
        9
 70
   128
 43
0.0
 10
52.94
 20
-1.29
 10
51.29
 20
-2.56
 10
51.1
 20
-4.46
 10
48.33
 20
-4.46
 10
47.68
 20
-4.97
 10
47.05
 20
-4.46
 10
44.26
 20
-4.46
 10
44.07
 20
-2.56
 10
42.44
 20
-1.29
  0
ARC
  5
6E9
330
12420
100
AcDbEntity
  8
Level 61
  6
Continuous
 62
     7
370
    40
100
AcDbCircle
 10
47.685845
 20
-0.373682
 30
0.0
 40
5.151428613542582
100
AcDbArc
 50
350.0905
 51
189.909494
  0
ARC
  5
6EA
330
12420
100
AcDbEntity
  8
Level 61
  6
Continuous
 62
     7
370
    40
100
AcDbCircle
 10
47.685845
 20
-0.373682
 30
0.0
 40
4.899255200262305
100
AcDbArc
 50
350.0905
 51
189.909494
  0
ARC
  5
6EB
330
12420
100
AcDbEntity
  8
Level 61
  6
Continuous
 62
     7
370
    40
100
AcDbCircle
 10
47.685845
 20
-0.373682
 30
0.0
 40
4.647205198815439
100
AcDbArc
 50
350.0905
 51
189.909494
  0
LWPOLYLINE
  5
6EC
330
12420
100
AcDbEntity
  8
Level 61
  6
Continuous
 62
     7
370
    40
100
AcDbPolyline
 90
        2
 70
   128
 43
0.0
 10
52.13
 20
1.05
 10
51.31
 20
0.05
  0
LWPOLYLINE
  5
6ED
330
12420
100
AcDbEntity
  8
Level 61
  6
Continuous
 62
     7
370
    40
100
AcDbPolyline
 90
        2
 70
   128
 43
0.0
 10
44.01
 20
0.14
 10
43.25
 20
1.05
  0
LWPOLYLINE
  5
6EE
330
12420
100
AcDbEntity
  8
Level 61
  6
Continuous
 62
     7
370
    40
100
AcDbPolyline
 90
        2
 70
   128
 43
0.0
 10
44.34
 20
2.76
 10
45.31
 20
0.72
  0
LWPOLYLINE
  5
6EF
330
12420
100
AcDbEntity
  8
Level 61
  6
Continuous
 62
     7
370
    40
100
AcDbPolyline
 90
        2
 70
   128
 43
0.0
 10
51.04
 20
2.76
 10
49.98
 20
0.47
  0
LWPOLYLINE
  5
6F0
330
12420
100
AcDbEntity
  8
Level 61
  6
Continuous
 62
     7
370
    40
100
AcDbPolyline
 90
        2
 70
   128
 43
0.0
 10
48.93
 20
1.22
 10
49.52
 20
3.84
  0
LWPOLYLINE
  5
6F1
330
12420
100
AcDbEntity
  8
Level 61
  6
Continuous
 62
     7
370
    40
100
AcDbPolyline
 90
        2
 70
   128
 43
0.0
 10
47.68
 20
1.3
 10
47.68
 20
4.28
  0
LWPOLYLINE
  5
6F2
330
12420
100
AcDbEntity
  8
Level 61
  6
Continuous
 62
     7
370
    40
100
AcDbPolyline
 90
        2
 70
   128
 43
0.0
 10
46.48
 20
1.15
 10
45.78
 20
3.9
  0
LWPOLYLINE
  5
6F3
330
12420
100
AcDbEntity
  8
Level 61
  6
Continuous
 62
     7
370
    53
100
AcDbPolyline
 90
       12
 70
   128
 43
0.0
 10
-53.02
 20
-1.62
 10
-52.57
 20
-2.37
 10
-51.63
 20
-2.37
 10
-51.16
 20
-1.62
 10
-51.16
 20
-0.84
 10
-51.63
 20
0.02
 10
-52.57
 20
0.02
 10
-53.02
 20
0.85
 10
-53.02
 20
1.63
 10
-52.57
 20
2.38
 10
-51.63
 20
2.38
 10
-51.16
 20
1.63
  0
LWPOLYLINE
  5
6F4
330
12420
100
AcDbEntity
  8
Level 61
  6
Continuous
 62
     7
370
    53
100
AcDbPolyline
 90
        2
 70
   128
 43
0.0
 10
-48.4
 20
-2.37
 10
-48.4
 20
2.38
  0
LWPOLYLINE
  5
6F5
330
12420
100
AcDbEntity
  8
Level 61
  6
Continuous
 62
     7
370
    53
100
AcDbPolyline
 90
        2
 70
   128
 43
0.0
 10
-48.4
 20
0.1
 10
-50.26
 20
0.1
  0
LWPOLYLINE
  5
6F6
330
12420
100
AcDbEntity
  8
Level 61
  6
Continuous
 62
     7
370
    53
100
AcDbPolyline
 90
        2
 70
   128
 43
0.0
 10
-50.26
 20
-2.37
 10
-50.26
 20
2.38
  0
LWPOLYLINE
  5
6F7
330
12420
100
AcDbEntity
  8
Level 61
  6
Continuous
 62
     7
370
    53
100
AcDbPolyline
 90
        2
 70
   128
 43
0.0
 10
-46.09
 20
0.06
 10
-47.48
 20
0.06
  0
LWPOLYLINE
  5
6F8
330
12420
100
AcDbEntity
  8
Level 61
  6
Continuous
 62
     7
370
    53
100
AcDbPolyline
 90
        4
 70
   128
 43
0.0
 10
-45.62
 20
-2.37
 10
-47.48
 20
-2.37
 10
-47.48
 20
2.38
 10
-45.62
 20
2.38
  0
LWPOLYLINE
  5
6F9
330
12420
100
AcDbEntity
  8
Level 61
  6
Continuous
 62
     7
370
    53
100
AcDbPolyline
 90
        3
 70
   128
 43
0.0
 10
-42.81
 20
-2.37
 10
-44.67
 20
-2.37
 10
-44.67
 20
2.38
  0
LWPOLYLINE
  5
6FA
330
12420
100
AcDbEntity
  8
Level 61
  6
Continuous
 62
     7
370
    53
100
AcDbPolyline
 90
        3
 70
   128
 43
0.0
 10
-40.03
 20
-2.37
 10
-41.89
 20
-2.37
 10
-41.89
 20
2.38
  0
LWPOLYLINE
  5
6FB
330
12420
100
AcDbEntity
  8
Level 61
  6
Continuous
 62
     7
370
    53
100
AcDbPolyline
 90
        6
 70
   128
 43
0.0
 10
-34.49
 20
2.38
 10
-34.49
 20
-1.62
 10
-34.96
 20
-2.37
 10
-35.9
 20
-2.37
 10
-36.35
 20
-1.62
 10
-36.35
 20
2.38
  0
LWPOLYLINE
  5
6FC
330
12420
100
AcDbEntity
  8
Level 61
  6
Continuous
 62
     7
370
    53
100
AcDbPolyline
 90
        2
 70
   128
 43
0.0
 10
-33.54
 20
2.38
 10
-33.54
 20
-2.37
  0
LWPOLYLINE
  5
6FD
330
12420
100
AcDbEntity
  8
Level 61
  6
Continuous
 62
     7
370
    53
100
AcDbPolyline
 90
        2
 70
   128
 43
0.0
 10
-33.54
 20
-0.84
 10
-31.68
 20
2.38
  0
LWPOLYLINE
  5
6FE
330
12420
100
AcDbEntity
  8
Level 61
  6
Continuous
 62
     7
370
    53
100
AcDbPolyline
 90
        2
 70
   128
 43
0.0
 10
-33.09
 20
-0.05
 10
-31.68
 20
-2.37
  0
LWPOLYLINE
  5
6FF
330
12420
100
AcDbEntity
  8
Level 61
  6
Continuous
 62
     7
370
    53
100
AcDbPolyline
 90
        2
 70
   128
 43
0.0
 10
-26.61
 20
0.06
 10
-28.0
 20
0.06
  0
LWPOLYLINE
  5
700
330
12420
100
AcDbEntity
  8
Level 61
  6
Continuous
 62
     7
370
    53
100
AcDbPolyline
 90
        4
 70
   128
 43
0.0
 10
-26.14
 20
-2.37
 10
-28.0
 20
-2.37
 10
-28.0
 20
2.38
 10
-26.14
 20
2.38
  0
LWPOLYLINE
  5
701
330
12420
100
AcDbEntity
  8
Level 61
  6
Continuous
 62
     7
370
    53
100
AcDbPolyline
 90
        2
 70
   128
 43
0.0
 10
-25.22
 20
2.38
 10
-23.36
 20
-2.37
  0
LWPOLYLINE
  5
702
330
12420
100
AcDbEntity
  8
Level 61
  6
Continuous
 62
     7
370
    53
100
AcDbPolyline
 90
        2
 70
   128
 43
0.0
 10
-25.22
 20
-2.37
 10
-23.36
 20
2.38
  0
LWPOLYLINE
  5
703
330
12420
100
AcDbEntity
  8
Level 61
  6
Continuous
 62
     7
370
    53
100
AcDbPolyline
 90
        7
 70
   128
 43
0.0
 10
-22.41
 20
-2.37
 10
-22.41
 20
2.38
 10
-21.13
 20
2.38
 10
-20.66
 20
1.63
 10
-20.66
 20
0.85
 10
-21.13
 20
0.06
 10
-22.41
 20
0.06
  0
LWPOLYLINE
  5
704
330
12420
100
AcDbEntity
  8
Level 61
  6
Continuous
 62
     7
370
    53
100
AcDbPolyline
 90
        3
 70
   128
 43
0.0
 10
-17.86
 20
-2.37
 10
-19.72
 20
-2.37
 10
-19.72
 20
2.38
  0
LWPOLYLINE
  5
705
330
12420
100
AcDbEntity
  8
Level 61
  6
Continuous
 62
     7
370
    53
100
AcDbPolyline
 90
        9
 70
   128
 43
0.0
 10
-16.51
 20
2.38
 10
-15.57
 20
2.38
 10
-15.1
 20
1.63
 10
-15.1
 20
-1.62
 10
-15.57
 20
-2.37
 10
-16.51
 20
-2.37
 10
-16.96
 20
-1.62
 10
-16.96
 20
1.63
 10
-16.51
 20
2.38
  0
LWPOLYLINE
  5
706
330
12420
100
AcDbEntity
  8
Level 61
  6
Continuous
 62
     7
370
    53
100
AcDbPolyline
 90
        2
 70
   128
 43
0.0
 10
-12.79
 20
0.06
 10
-14.18
 20
0.06
  0
LWPOLYLINE
  5
707
330
12420
100
AcDbEntity
  8
Level 61
  6
Continuous
 62
     7
370
    53
100
AcDbPolyline
 90
        7
 70
   128
 43
0.0
 10
-14.18
 20
-2.37
 10
-14.18
 20
2.38
 10
-12.79
 20
2.38
 10
-12.32
 20
1.63
 10
-12.32
 20
0.85
 10
-12.79
 20
0.06
 10
-12.32
 20
-2.37
  0
LWPOLYLINE
  5
708
330
12420
100
AcDbEntity
  8
Level 61
  6
Continuous
 62
     7
370
    53
100
AcDbPolyline
 90
        2
 70
   128
 43
0.0
 10
-9.51
 20
-0.84
 10
-11.37
 20
-0.84
  0
LWPOLYLINE
  5
709
330
12420
100
AcDbEntity
  8
Level 61
  6
Continuous
 62
     7
370
    53
100
AcDbPolyline
 90
        5
 70
   128
 43
0.0
 10
-11.37
 20
-2.37
 10
-11.37
 20
-0.01
 10
-10.43
 20
2.38
 10
-9.51
 20
-0.01
 10
-9.51
 20
-2.37
  0
LWPOLYLINE
  5
70A
330
12420
100
AcDbEntity
  8
Level 61
  6
Continuous
 62
     7
370
    53
100
AcDbPolyline
 90
        2
 70
   128
 43
0.0
 10
-7.65
 20
2.38
 10
-7.65
 20
-2.37
  0
LWPOLYLINE
  5
70B
330
12420
100
AcDbEntity
  8
Level 61
  6
Continuous
 62
     7
370
    53
100
AcDbPolyline
 90
        2
 70
   128
 43
0.0
 10
-8.59
 20
2.38
 10
-6.71
 20
2.38
  0
LWPOLYLINE
  5
70C
330
12420
100
AcDbEntity
  8
Level 61
  6
Continuous
 62
     7
370
    53
100
AcDbPolyline
 90
        2
 70
   128
 43
0.0
 10
-4.87
 20
-2.37
 10
-5.76
 20
-2.37
  0
LWPOLYLINE
  5
70D
330
12420
100
AcDbEntity
  8
Level 61
  6
Continuous
 62
     7
370
    53
100
AcDbPolyline
 90
        2
 70
   128
 43
0.0
 10
-5.31
 20
-2.37
 10
-5.31
 20
2.38
  0
LWPOLYLINE
  5
70E
330
12420
100
AcDbEntity
  8
Level 61
  6
Continuous
 62
     7
370
    53
100
AcDbPolyline
 90
        2
 70
   128
 43
0.0
 10
-5.76
 20
2.38
 10
-4.87
 20
2.38
  0
LWPOLYLINE
  5
70F
330
12420
100
AcDbEntity
  8
Level 61
  6
Continuous
 62
     7
370
    53
100
AcDbPolyline
 90
        9
 70
   128
 43
0.0
 10
-3.47
 20
2.38
 10
-2.53
 20
2.38
 10
-2.06
 20
1.63
 10
-2.06
 20
-1.62
 10
-2.53
 20
-2.37
 10
-3.47
 20
-2.37
 10
-3.92
 20
-1.62
 10
-3.92
 20
1.63
 10
-3.47
 20
2.38
  0
LWPOLYLINE
  5
710
330
12420
100
AcDbEntity
  8
Level 61
  6
Continuous
 62
     7
370
    53
100
AcDbPolyline
 90
        4
 70
   128
 43
0.0
 10
-1.14
 20
-2.37
 10
-1.14
 20
2.38
 10
0.72
 20
-2.37
 10
0.72
 20
2.38
  0
LWPOLYLINE
  5
711
330
12420
100
AcDbEntity
  8
Level 61
  6
Continuous
 62
     7
370
    53
100
AcDbPolyline
 90
       13
 70
   128
 43
0.0
 10
6.26
 20
-0.05
 10
5.79
 20
-1.62
 10
5.32
 20
-2.37
 10
4.85
 20
-2.37
 10
4.4
 20
-1.62
 10
4.4
 20
-0.84
 10
5.57
 20
0.92
 10
5.57
 20
1.63
 10
5.23
 20
2.38
 10
4.96
 20
2.38
 10
4.6
 20
1.63
 10
4.6
 20
0.92
 10
6.56
 20
-2.37
  0
LWPOLYLINE
  5
712
330
12420
100
AcDbEntity
  8
Level 61
  6
Continuous
 62
     7
370
    53
100
AcDbPolyline
 90
        7
 70
   128
 43
0.0
 10
10.62
 20
-2.37
 10
10.62
 20
2.38
 10
11.9
 20
2.38
 10
12.37
 20
1.63
 10
12.37
 20
0.85
 10
11.9
 20
0.06
 10
10.62
 20
0.06
  0
LWPOLYLINE
  5
713
330
12420
100
AcDbEntity
  8
Level 61
  6
Continuous
 62
     7
370
    53
100
AcDbPolyline
 90
        2
 70
   128
 43
0.0
 10
14.7
 20
0.06
 10
13.31
 20
0.06
  0
LWPOLYLINE
  5
714
330
12420
100
AcDbEntity
  8
Level 61
  6
Continuous
 62
     7
370
    53
100
AcDbPolyline
 90
        7
 70
   128
 43
0.0
 10
13.31
 20
-2.37
 10
13.31
 20
2.38
 10
14.7
 20
2.38
 10
15.17
 20
1.63
 10
15.17
 20
0.85
 10
14.7
 20
0.06
 10
15.17
 20
-2.37
  0
LWPOLYLINE
  5
715
330
12420
100
AcDbEntity
  8
Level 61
  6
Continuous
 62
     7
370
    53
100
AcDbPolyline
 90
        9
 70
   128
 43
0.0
 10
16.52
 20
2.38
 10
17.46
 20
2.38
 10
17.93
 20
1.63
 10
17.93
 20
-1.62
 10
17.46
 20
-2.37
 10
16.52
 20
-2.37
 10
16.07
 20
-1.62
 10
16.07
 20
1.63
 10
16.52
 20
2.38
  0
LWPOLYLINE
  5
716
330
12420
100
AcDbEntity
  8
Level 61
  6
Continuous
 62
     7
370
    53
100
AcDbPolyline
 90
        7
 70
   128
 43
0.0
 10
18.85
 20
2.38
 10
20.24
 20
2.38
 10
20.71
 20
1.52
 10
20.71
 20
-1.51
 10
20.24
 20
-2.37
 10
18.85
 20
-2.37
 10
18.85
 20
2.38
  0
LWPOLYLINE
  5
717
330
12420
100
AcDbEntity
  8
Level 61
  6
Continuous
 62
     7
370
    53
100
AcDbPolyline
 90
        6
 70
   128
 43
0.0
 10
23.52
 20
2.38
 10
23.52
 20
-1.62
 10
23.05
 20
-2.37
 10
22.11
 20
-2.37
 10
21.66
 20
-1.62
 10
21.66
 20
2.38
  0
LWPOLYLINE
  5
718
330
12420
100
AcDbEntity
  8
Level 61
  6
Continuous
 62
     7
370
    53
100
AcDbPolyline
 90
        8
 70
   128
 43
0.0
 10
26.3
 20
-1.62
 10
25.83
 20
-2.37
 10
24.89
 20
-2.37
 10
24.44
 20
-1.62
 10
24.44
 20
1.63
 10
24.89
 20
2.38
 10
25.83
 20
2.38
 10
26.3
 20
1.63
  0
LWPOLYLINE
  5
719
330
12420
100
AcDbEntity
  8
Level 61
  6
Continuous
 62
     7
370
    53
100
AcDbPolyline
 90
        2
 70
   128
 43
0.0
 10
28.14
 20
2.38
 10
28.14
 20
-2.37
  0
LWPOLYLINE
  5
71A
330
12420
100
AcDbEntity
  8
Level 61
  6
Continuous
 62
     7
370
    53
100
AcDbPolyline
 90
        2
 70
   128
 43
0.0
 10
27.2
 20
2.38
 10
29.08
 20
2.38
  0
LWPOLYLINE
  5
71B
330
12420
100
AcDbEntity
  8
Level 61
  6
Continuous
 62
     7
370
    53
100
AcDbPolyline
 90
        2
 70
   128
 43
0.0
 10
30.95
 20
-2.37
 10
30.05
 20
-2.37
  0
LWPOLYLINE
  5
71C
330
12420
100
AcDbEntity
  8
Level 61
  6
Continuous
 62
     7
370
    53
100
AcDbPolyline
 90
        2
 70
   128
 43
0.0
 10
30.5
 20
-2.37
 10
30.5
 20
2.38
  0
LWPOLYLINE
  5
71D
330
12420
100
AcDbEntity
  8
Level 61
  6
Continuous
 62
     7
370
    53
100
AcDbPolyline
 90
        2
 70
   128
 43
0.0
 10
30.05
 20
2.38
 10
30.95
 20
2.38
  0
LWPOLYLINE
  5
71E
330
12420
100
AcDbEntity
  8
Level 61
  6
Continuous
 62
     7
370
    53
100
AcDbPolyline
 90
        9
 70
   128
 43
0.0
 10
32.34
 20
2.38
 10
33.28
 20
2.38
 10
33.75
 20
1.63
 10
33.75
 20
-1.62
 10
33.28
 20
-2.37
 10
32.34
 20
-2.37
 10
31.89
 20
-1.62
 10
31.89
 20
1.63
 10
32.34
 20
2.38
  0
LWPOLYLINE
  5
71F
330
12420
100
AcDbEntity
  8
Level 61
  6
Continuous
 62
     7
370
    53
100
AcDbPolyline
 90
        4
 70
   128
 43
0.0
 10
34.65
 20
-2.37
 10
34.65
 20
2.38
 10
36.51
 20
-2.37
 10
36.51
 20
2.38
  0
ENDBLK
  5
134EC
330
12420
100
AcDbEntity
  8
0
100
AcDbBlockEnd
  0
BLOCK
  5
134ED
330
1242B
100
AcDbEntity
  8
0
100
AcDbBlockBegin
  2
block 4
 70
     0
 10
0.0
 20
0.0
 30
0.0
  3
block 4
  1

  0
LWPOLYLINE
  5
8A8
330
1242B
100
AcDbEntity
  8
Level 61
 62
     7
100
AcDbPolyline
 90
       14
 70
   128
 43
0.0
 10
2679.241113
 20
-1830.394734
 10
2642.326949
 20
-1830.438487
 10
2612.66261
 20
-1654.11943
 10
2582.692002
 20
-1830.394734
 10
2546.066606
 20
-1830.394734
 10
2505.612848
 20
-1558.686013
 10
2546.871656
 20
-1558.567881
 10
2566.009092
 20
-1731.089202
 10
2597.147898
 20
-1558.611634
 10
2627.34602
 20
-1558.686013
 10
2659.04486
 20
-1735.376968
 10
2678.409811
 20
-1558.677263
 10
2719.694871
 20
-1558.686013
 10
2679.241113
 20
-1830.394734
  0
HATCH
  5
8A9
330
1242B
100
AcDbEntity
  8
Level 61
 62
     7
100
AcDbHatch
 10
0.0
 20
0.0
 30
0.0
210
0.0
220
0.0
230
-1.0
  2
SOLID
 70
     1
 71
     0
 91
        1
 92
        3
 72
     0
 73
     1
 93
       13
 10
-2679.241112611435
 20
-1830.394734242923
 10
-2642.326948937931
 20
-1830.438486955584
 10
-2612.66260975265
 20
-1654.119430196279
 10
-2582.692001578711
 20
-1830.394734242923
 10
-2546.066605808792
 20
-1830.394734242923
 10
-2505.612847680884
 20
-1558.686013336457
 10
-2546.871655721781
 20
-1558.567881012268
 10
-2566.009092240438
 20
-1731.089202312453
 10
-2597.14789784246
 20
-1558.61163372493
 10
-2627.346020122237
 20
-1558.686013336457
 10
-2659.044860446353
 20
-1735.376968153396
 10
-2678.40981107084
 20
-1558.677262793925
 10
-2719.694870739346
 20
-1558.686013336457
 97
        0
 75
     0
 76
     1
 98
        0
  0
SPLINE
  5
8B8
330
1242B
100
AcDbEntity
  8
Level 61
 62
     7
100
AcDbSpline
210
0.0
220
0.0
230
1.0
 70
    11
 71
     3
 72
    35
 73
    31
 74
     0
 42
0.0000000001
 43
0.0000000001
 40
0.0
 40
0.0
 40
0.0
 40
0.0
 40
1.0
 40
1.0
 40
1.0
 40
2.0
 40
2.0
 40
2.0
 40
3.0
 40
3.0
 40
3.0
 40
4.0
 40
4.0
 40
4.0
 40
5.0
 40
5.0
 40
5.0
 40
6.0
 40
6.0
 40
6.0
 40
7.0
 40
7.0
 40
7.0
 40
8.0
 40
8.0
 40
8.0
 40
9.0
 40
9.0
 40
9.0
 40
10.0
 40
10.0
 40
10.0
 40
10.0
 10
2736.478411316744
 20
-1622.796863201073
 30
0.0
 10
2736.478411316744
 20
-1601.939945074776
 30
0.0
 10
2743.032567673614
 20
-1585.655185421729
 30
0.0
 10
2756.132129844817
 20
-1573.951334784464
 30
0.0
 10
2769.231692016019
 20
-1562.251859418466
 30
0.0
 10
2784.440134937566
 20
-1556.397746464199
 30
0.0
 10
2801.731206981851
 20
-1556.397746464199
 30
0.0
 10
2819.293545844652
 20
-1556.397746464199
 30
0.0
 10
2834.554492021387
 20
-1562.186230349471
 30
0.0
 10
2847.522796054604
 20
-1573.758822848749
 30
0.0
 10
2860.508601172885
 20
-1585.340165890557
 30
0.0
 10
2866.992753189494
 20
-1601.681804070067
 30
0.0
 10
2866.992753189494
 20
-1622.796863201073
 30
0.0
 10
2866.992753189494
 20
-1622.796863201073
 30
0.0
 10
2866.992753189494
 20
-1766.283884378307
 30
0.0
 10
2866.992753189494
 20
-1766.283884378307
 30
0.0
 10
2866.992753189494
 20
-1787.149553047136
 30
0.0
 10
2860.438596832628
 20
-1803.434312700184
 30
0.0
 10
2847.339034661425
 20
-1815.133788066182
 30
0.0
 10
2834.239472490219
 20
-1826.833263432182
 30
0.0
 10
2819.031029568672
 20
-1832.68300111518
 30
0.0
 10
2801.731206981851
 20
-1832.68300111518
 30
0.0
 10
2784.186369204123
 20
-1832.68300111518
 30
0.0
 10
2768.907921942311
 20
-1826.903267772441
 30
0.0
 10
2755.939617909102
 20
-1815.317549459367
 30
0.0
 10
2742.971313875885
 20
-1803.74495696009
 30
0.0
 10
2736.478411316744
 20
-1787.40331878058
 30
0.0
 10
2736.478411316744
 20
-1766.283884378307
 30
0.0
 10
2736.478411316744
 20
-1766.283884378307
 30
0.0
 10
2736.478411316744
 20
-1622.796863201073
 30
0.0
 10
2736.478411316744
 20
-1622.796863201073
 30
0.0
  0
SPLINE
  5
8BB
330
1242B
100
AcDbEntity
  8
Level 61
 62
     7
100
AcDbSpline
210
0.0
220
0.0
230
1.0
 70
    11
 71
     3
 72
    35
 73
    31
 74
     0
 42
0.0000000001
 43
0.0000000001
 40
0.0
 40
0.0
 40
0.0
 40
0.0
 40
1.0
 40
1.0
 40
1.0
 40
2.0
 40
2.0
 40
2.0
 40
3.0
 40
3.0
 40
3.0
 40
4.0
 40
4.0
 40
4.0
 40
5.0
 40
5.0
 40
5.0
 40
6.0
 40
6.0
 40
6.0
 40
7.0
 40
7.0
 40
7.0
 40
8.0
 40
8.0
 40
8.0
 40
9.0
 40
9.0
 40
9.0
 40
10.0
 40
10.0
 40
10.0
 40
10.0
 10
2775.409575043985
 20
-1766.283884378307
 30
0.0
 10
2775.409575043985
 20
-1775.196311947695
 30
0.0
 10
2777.885978580696
 20
-1781.999858766739
 30
0.0
 10
2782.847536196645
 20
-1786.698900106711
 30
0.0
 10
2787.80909381259
 20
-1791.411067260481
 30
0.0
 10
2794.100733893487
 20
-1793.756212659202
 30
0.0
 10
2801.731206981851
 20
-1793.756212659202
 30
0.0
 10
2809.361680070226
 20
-1793.756212659202
 30
0.0
 10
2815.670821236177
 20
-1791.411067260481
 30
0.0
 10
2820.632378852126
 20
-1786.698900106711
 30
0.0
 10
2825.585185925542
 20
-1781.999858766739
 30
0.0
 10
2828.070340004786
 20
-1775.196311947695
 30
0.0
 10
2828.070340004786
 20
-1766.283884378307
 30
0.0
 10
2828.070340004786
 20
-1766.283884378307
 30
0.0
 10
2828.070340004786
 20
-1622.796863201073
 30
0.0
 10
2828.070340004786
 20
-1622.796863201073
 30
0.0
 10
2828.070340004786
 20
-1613.893186174219
 30
0.0
 10
2825.585185925542
 20
-1607.089639355172
 30
0.0
 10
2820.632378852126
 20
-1602.381847472669
 30
0.0
 10
2815.670821236177
 20
-1597.674055590167
 30
0.0
 10
2809.361680070226
 20
-1595.320159648913
 30
0.0
 10
2801.731206981851
 20
-1595.320159648913
 30
0.0
 10
2794.100733893487
 20
-1595.320159648913
 30
0.0
 10
2787.80909381259
 20
-1597.674055590167
 30
0.0
 10
2782.847536196645
 20
-1602.381847472669
 30
0.0
 10
2777.885978580696
 20
-1607.089639355172
 30
0.0
 10
2775.409575043985
 20
-1613.893186174219
 30
0.0
 10
2775.409575043985
 20
-1622.796863201073
 30
0.0
 10
2775.409575043985
 20
-1622.796863201073
 30
0.0
 10
2775.409575043985
 20
-1766.283884378307
 30
0.0
 10
2775.409575043985
 20
-1766.283884378307
 30
0.0
  0
HATCH
  5
8BE
330
1242B
100
AcDbEntity
  8
Level 61
 62
     7
100
AcDbHatch
 10
0.0
 20
0.0
 30
0.0
210
0.0
220
0.0
230
-0.9999999999999999
  2
SOLID
 70
     1
 71
     0
 91
        2
 92
        1
 93
        4
 72
     4
 94
        3
 73
     0
 74
     0
 95
       17
 96
       13
 40
0.0
 40
0.0
 40
0.0
 40
0.0
 40
0.2500000000000002
 40
0.2500000000000002
 40
0.2500000000000002
 40
0.5000000000000002
 40
0.5000000000000002
 40
0.5000000000000002
 40
0.7500000000000001
 40
0.7500000000000001
 40
0.7500000000000001
 40
1.0
 40
1.0
 40
1.0
 40
1.0
 10
-2866.992753189494
 20
-1766.283884378307
 10
-2866.992753189494
 20
-1787.149553047136
 10
-2860.438596832628
 20
-1803.434312700184
 10
-2847.339034661425
 20
-1815.133788066182
 10
-2834.239472490219
 20
-1826.833263432182
 10
-2819.031029568672
 20
-1832.68300111518
 10
-2801.731206981851
 20
-1832.68300111518
 10
-2784.186369204123
 20
-1832.68300111518
 10
-2768.907921942311
 20
-1826.903267772441
 10
-2755.939617909102
 20
-1815.317549459367
 10
-2742.971313875882
 20
-1803.74495696009
 10
-2736.478411316744
 20
-1787.40331878058
 10
-2736.478411316744
 20
-1766.283884378307
 72
     1
 10
-2736.478411316744
 20
-1766.283884378307
 11
-2736.478411316744
 21
-1622.796863201073
 72
     4
 94
        3
 73
     0
 74
     0
 95
       17
 96
       13
 40
0.0
 40
0.0
 40
0.0
 40
0.0
 40
0.25
 40
0.25
 40
0.25
 40
0.5
 40
0.5
 40
0.5
 40
0.7500000000000001
 40
0.7500000000000001
 40
0.7500000000000001
 40
1.0
 40
1.0
 40
1.0
 40
1.0
 10
-2736.478411316744
 20
-1622.796863201073
 10
-2736.478411316744
 20
-1601.939945074776
 10
-2743.032567673607
 20
-1585.655185421729
 10
-2756.132129844817
 20
-1573.951334784464
 10
-2769.231692016019
 20
-1562.251859418466
 10
-2784.440134937566
 20
-1556.397746464199
 10
-2801.731206981851
 20
-1556.397746464199
 10
-2819.293545844652
 20
-1556.397746464199
 10
-2834.554492021387
 20
-1562.186230349471
 10
-2847.522796054604
 20
-1573.758822848749
 10
-2860.508601172885
 20
-1585.340165890557
 10
-2866.992753189494
 20
-1601.681804070067
 10
-2866.992753189494
 20
-1622.796863201073
 72
     1
 10
-2866.992753189494
 20
-1622.796863201073
 11
-2866.992753189494
 21
-1766.283884378307
 97
        0
 92
       16
 93
        4
 72
     4
 94
        3
 73
     0
 74
     0
 95
       17
 96
       13
 40
0.0
 40
0.0
 40
0.0
 40
0.0
 40
0.2500000000000002
 40
0.2500000000000002
 40
0.2500000000000002
 40
0.5000000000000002
 40
0.5000000000000002
 40
0.5000000000000002
 40
0.7500000000000001
 40
0.7500000000000001
 40
0.7500000000000001
 40
1.0
 40
1.0
 40
1.0
 40
1.0
 10
-2828.070340004786
 20
-1622.796863201073
 10
-2828.070340004786
 20
-1613.893186174219
 10
-2825.585185925542
 20
-1607.089639355172
 10
-2820.632378852126
 20
-1602.381847472669
 10
-2815.670821236177
 20
-1597.674055590167
 10
-2809.361680070218
 20
-1595.320159648913
 10
-2801.731206981851
 20
-1595.320159648913
 10
-2794.100733893487
 20
-1595.320159648913
 10
-2787.80909381259
 20
-1597.674055590167
 10
-2782.847536196645
 20
-1602.381847472669
 10
-2777.885978580696
 20
-1607.089639355172
 10
-2775.409575043985
 20
-1613.893186174219
 10
-2775.409575043985
 20
-1622.796863201073
 72
     1
 10
-2775.409575043985
 20
-1622.796863201073
 11
-2775.409575043985
 21
-1766.283884378307
 72
     4
 94
        3
 73
     0
 74
     0
 95
       17
 96
       13
 40
0.0
 40
0.0
 40
0.0
 40
0.0
 40
0.25
 40
0.25
 40
0.25
 40
0.5
 40
0.5
 40
0.5
 40
0.7500000000000001
 40
0.7500000000000001
 40
0.7500000000000001
 40
1.0
 40
1.0
 40
1.0
 40
1.0
 10
-2775.409575043985
 20
-1766.283884378307
 10
-2775.409575043985
 20
-1775.196311947695
 10
-2777.885978580696
 20
-1781.999858766739
 10
-2782.847536196645
 20
-1786.698900106711
 10
-2787.80909381259
 20
-1791.411067260481
 10
-2794.100733893487
 20
-1793.756212659202
 10
-2801.731206981851
 20
-1793.756212659202
 10
-2809.361680070218
 20
-1793.756212659202
 10
-2815.670821236177
 20
-1791.411067260481
 10
-2820.632378852126
 20
-1786.698900106711
 10
-2825.585185925542
 20
-1781.999858766739
 10
-2828.070340004786
 20
-1775.196311947695
 10
-2828.070340004786
 20
-1766.283884378307
 72
     1
 10
-2828.070340004786
 20
-1766.283884378307
 11
-2828.070340004786
 21
-1622.796863201073
 97
        0
 75
     0
 76
     1
 98
        0
  0
SPLINE
  5
8D2
330
1242B
100
AcDbEntity
  8
Level 61
 62
     7
100
AcDbSpline
210
0.0
220
0.0
230
1.0
 70
    11
 71
     3
 72
    35
 73
    31
 74
     0
 42
0.0000000001
 43
0.0000000001
 40
0.0
 40
0.0
 40
0.0
 40
0.0
 40
1.0
 40
1.0
 40
1.0
 40
2.0
 40
2.0
 40
2.0
 40
3.0
 40
3.0
 40
3.0
 40
4.0
 40
4.0
 40
4.0
 40
5.0
 40
5.0
 40
5.0
 40
6.0
 40
6.0
 40
6.0
 40
7.0
 40
7.0
 40
7.0
 40
8.0
 40
8.0
 40
8.0
 40
9.0
 40
9.0
 40
9.0
 40
10.0
 40
10.0
 40
10.0
 40
10.0
 10
2897.514645542975
 20
-1622.796863201073
 30
0.0
 10
2897.514645542975
 20
-1601.939945074776
 30
0.0
 10
2904.068801899848
 20
-1585.655185421729
 30
0.0
 10
2917.177114613587
 20
-1573.951334784464
 30
0.0
 10
2930.26792624225
 20
-1562.251859418466
 30
0.0
 10
2945.476369163796
 20
-1556.397746464199
 30
0.0
 10
2962.776191750621
 20
-1556.397746464199
 30
0.0
 10
2980.329780070886
 20
-1556.397746464199
 30
0.0
 10
2995.599476790154
 20
-1562.186230349471
 30
0.0
 10
3008.567780823367
 20
-1573.758822848749
 30
0.0
 10
3021.544835399123
 20
-1585.340165890557
 30
0.0
 10
3028.028987415724
 20
-1601.681804070067
 30
0.0
 10
3028.028987415724
 20
-1622.796863201073
 30
0.0
 10
3028.028987415724
 20
-1622.796863201073
 30
0.0
 10
3028.028987415724
 20
-1766.283884378307
 30
0.0
 10
3028.028987415724
 20
-1766.283884378307
 30
0.0
 10
3028.028987415724
 20
-1787.149553047136
 30
0.0
 10
3021.474831058862
 20
-1803.434312700184
 30
0.0
 10
3008.384019430188
 20
-1815.133788066182
 30
0.0
 10
2995.275706716449
 20
-1826.833263432182
 30
0.0
 10
2980.06726379491
 20
-1832.68300111518
 30
0.0
 10
2962.776191750621
 20
-1832.68300111518
 30
0.0
 10
2945.231353972889
 20
-1832.68300111518
 30
0.0
 10
2929.952906711089
 20
-1826.903267772441
 30
0.0
 10
2916.984602677869
 20
-1815.317549459367
 30
0.0
 10
2904.016298644652
 20
-1803.74495696009
 30
0.0
 10
2897.514645542975
 20
-1787.40331878058
 30
0.0
 10
2897.514645542975
 20
-1766.283884378307
 30
0.0
 10
2897.514645542975
 20
-1766.283884378307
 30
0.0
 10
2897.514645542975
 20
-1622.796863201073
 30
0.0
 10
2897.514645542975
 20
-1622.796863201073
 30
0.0
  0
SPLINE
  5
8D5
330
1242B
100
AcDbEntity
  8
Level 61
 62
     7
100
AcDbSpline
210
0.0
220
0.0
230
1.0
 70
    11
 71
     3
 72
    35
 73
    31
 74
     0
 42
0.0000000001
 43
0.0000000001
 40
0.0
 40
0.0
 40
0.0
 40
0.0
 40
1.0
 40
1.0
 40
1.0
 40
2.0
 40
2.0
 40
2.0
 40
3.0
 40
3.0
 40
3.0
 40
4.0
 40
4.0
 40
4.0
 40
5.0
 40
5.0
 40
5.0
 40
6.0
 40
6.0
 40
6.0
 40
7.0
 40
7.0
 40
7.0
 40
8.0
 40
8.0
 40
8.0
 40
9.0
 40
9.0
 40
9.0
 40
10.0
 40
10.0
 40
10.0
 40
10.0
 10
2936.445809270223
 20
-1766.283884378307
 30
0.0
 10
2936.445809270223
 20
-1775.196311947695
 30
0.0
 10
2938.922212806931
 20
-1781.999858766739
 30
0.0
 10
2943.892520965412
 20
-1786.698900106711
 30
0.0
 10
2948.854078581357
 20
-1791.411067260481
 30
0.0
 10
2955.14571866225
 20
-1793.756212659202
 30
0.0
 10
2962.776191750621
 20
-1793.756212659202
 30
0.0
 10
2970.406664838982
 20
-1793.756212659202
 30
0.0
 10
2976.707055462415
 20
-1791.411067260481
 30
0.0
 10
2981.668613078364
 20
-1786.698900106711
 30
0.0
 10
2986.621420151772
 20
-1781.999858766739
 30
0.0
 10
2989.115324773542
 20
-1775.196311947695
 30
0.0
 10
2989.115324773542
 20
-1766.283884378307
 30
0.0
 10
2989.115324773542
 20
-1766.283884378307
 30
0.0
 10
2989.115324773542
 20
-1622.796863201073
 30
0.0
 10
2989.115324773542
 20
-1622.796863201073
 30
0.0
 10
2989.115324773542
 20
-1613.893186174219
 30
0.0
 10
2986.621420151772
 20
-1607.089639355172
 30
0.0
 10
2981.668613078364
 20
-1602.381847472669
 30
0.0
 10
2976.707055462415
 20
-1597.674055590167
 30
0.0
 10
2970.406664838982
 20
-1595.320159648913
 30
0.0
 10
2962.776191750621
 20
-1595.320159648913
 30
0.0
 10
2955.14571866225
 20
-1595.320159648913
 30
0.0
 10
2948.854078581357
 20
-1597.674055590167
 30
0.0
 10
2943.892520965412
 20
-1602.381847472669
 30
0.0
 10
2938.922212806931
 20
-1607.089639355172
 30
0.0
 10
2936.445809270223
 20
-1613.893186174219
 30
0.0
 10
2936.445809270223
 20
-1622.796863201073
 30
0.0
 10
2936.445809270223
 20
-1622.796863201073
 30
0.0
 10
2936.445809270223
 20
-1766.283884378307
 30
0.0
 10
2936.445809270223
 20
-1766.283884378307
 30
0.0
  0
HATCH
  5
8D8
330
1242B
100
AcDbEntity
  8
Level 61
 62
     7
100
AcDbHatch
 10
0.0
 20
0.0
 30
0.0
210
0.0
220
0.0
230
-0.9999999999999999
  2
SOLID
 70
     1
 71
     0
 91
        2
 92
        1
 93
        4
 72
     4
 94
        3
 73
     0
 74
     0
 95
       17
 96
       13
 40
0.0
 40
0.0
 40
0.0
 40
0.0
 40
0.2500000000000002
 40
0.2500000000000002
 40
0.2500000000000002
 40
0.5000000000000002
 40
0.5000000000000002
 40
0.5000000000000002
 40
0.7500000000000001
 40
0.7500000000000001
 40
0.7500000000000001
 40
1.0
 40
1.0
 40
1.0
 40
1.0
 10
-3028.028987415724
 20
-1766.283884378307
 10
-3028.028987415724
 20
-1787.149553047136
 10
-3021.474831058862
 20
-1803.434312700184
 10
-3008.384019430188
 20
-1815.133788066182
 10
-2995.275706716449
 20
-1826.833263432182
 10
-2980.067263794903
 20
-1832.68300111518
 10
-2962.776191750621
 20
-1832.68300111518
 10
-2945.231353972882
 20
-1832.68300111518
 10
-2929.952906711082
 20
-1826.903267772441
 10
-2916.984602677869
 20
-1815.317549459367
 10
-2904.016298644652
 20
-1803.74495696009
 10
-2897.514645542975
 20
-1787.40331878058
 10
-2897.514645542975
 20
-1766.283884378307
 72
     1
 10
-2897.514645542975
 20
-1766.283884378307
 11
-2897.514645542975
 21
-1622.796863201073
 72
     4
 94
        3
 73
     0
 74
     0
 95
       17
 96
       13
 40
0.0
 40
0.0
 40
0.0
 40
0.0
 40
0.25
 40
0.25
 40
0.25
 40
0.5
 40
0.5
 40
0.5
 40
0.7500000000000001
 40
0.7500000000000001
 40
0.7500000000000001
 40
1.0
 40
1.0
 40
1.0
 40
1.0
 10
-2897.514645542975
 20
-1622.796863201073
 10
-2897.514645542975
 20
-1601.939945074776
 10
-2904.068801899848
 20
-1585.655185421729
 10
-2917.17711461358
 20
-1573.951334784464
 10
-2930.26792624225
 20
-1562.251859418466
 10
-2945.476369163796
 20
-1556.397746464199
 10
-2962.776191750621
 20
-1556.397746464199
 10
-2980.329780070886
 20
-1556.397746464199
 10
-2995.599476790154
 20
-1562.186230349471
 10
-3008.567780823367
 20
-1573.758822848749
 10
-3021.544835399123
 20
-1585.340165890557
 10
-3028.028987415724
 20
-1601.681804070067
 10
-3028.028987415724
 20
-1622.796863201073
 72
     1
 10
-3028.028987415724
 20
-1622.796863201073
 11
-3028.028987415724
 21
-1766.283884378307
 97
        0
 92
       16
 93
        4
 72
     4
 94
        3
 73
     0
 74
     0
 95
       17
 96
       13
 40
0.0
 40
0.0
 40
0.0
 40
0.0
 40
0.2500000000000002
 40
0.2500000000000002
 40
0.2500000000000002
 40
0.5000000000000002
 40
0.5000000000000002
 40
0.5000000000000002
 40
0.7500000000000001
 40
0.7500000000000001
 40
0.7500000000000001
 40
1.0
 40
1.0
 40
1.0
 40
1.0
 10
-2989.115324773542
 20
-1622.796863201073
 10
-2989.115324773542
 20
-1613.893186174219
 10
-2986.621420151772
 20
-1607.089639355172
 10
-2981.668613078364
 20
-1602.381847472669
 10
-2976.707055462415
 20
-1597.674055590167
 10
-2970.406664838982
 20
-1595.320159648913
 10
-2962.776191750621
 20
-1595.320159648913
 10
-2955.14571866225
 20
-1595.320159648913
 10
-2948.854078581357
 20
-1597.674055590167
 10
-2943.892520965412
 20
-1602.381847472669
 10
-2938.922212806931
 20
-1607.089639355172
 10
-2936.445809270223
 20
-1613.893186174219
 10
-2936.445809270223
 20
-1622.796863201073
 72
     1
 10
-2936.445809270223
 20
-1622.796863201073
 11
-2936.445809270223
 21
-1766.283884378307
 72
     4
 94
        3
 73
     0
 74
     0
 95
       17
 96
       13
 40
0.0
 40
0.0
 40
0.0
 40
0.0
 40
0.25
 40
0.25
 40
0.25
 40
0.5
 40
0.5
 40
0.5
 40
0.7500000000000001
 40
0.7500000000000001
 40
0.7500000000000001
 40
1.0
 40
1.0
 40
1.0
 40
1.0
 10
-2936.445809270223
 20
-1766.283884378307
 10
-2936.445809270223
 20
-1775.196311947695
 10
-2938.922212806931
 20
-1781.999858766739
 10
-2943.892520965412
 20
-1786.698900106711
 10
-2948.854078581357
 20
-1791.411067260481
 10
-2955.14571866225
 20
-1793.756212659202
 10
-2962.776191750621
 20
-1793.756212659202
 10
-2970.406664838982
 20
-1793.756212659202
 10
-2976.707055462415
 20
-1791.411067260481
 10
-2981.668613078364
 20
-1786.698900106711
 10
-2986.621420151772
 20
-1781.999858766739
 10
-2989.115324773542
 20
-1775.196311947695
 10
-2989.115324773542
 20
-1766.283884378307
 72
     1
 10
-2989.115324773542
 20
-1766.283884378307
 11
-2989.115324773542
 21
-1622.796863201073
 97
        0
 75
     0
 76
     1
 98
        0
  0
SPLINE
  5
8EC
330
1242B
100
AcDbEntity
  8
Level 61
 62
     7
100
AcDbSpline
210
0.0
220
0.0
230
1.0
 70
    11
 71
     3
 72
    29
 73
    25
 74
     0
 42
0.0000000001
 43
0.0000000001
 40
0.0
 40
0.0
 40
0.0
 40
0.0
 40
1.0
 40
1.0
 40
1.0
 40
2.0
 40
2.0
 40
2.0
 40
3.0
 40
3.0
 40
3.0
 40
4.0
 40
4.0
 40
4.0
 40
5.0
 40
5.0
 40
5.0
 40
6.0
 40
6.0
 40
6.0
 40
7.0
 40
7.0
 40
7.0
 40
8.0
 40
8.0
 40
8.0
 40
8.0
 10
3060.852272455264
 20
-1558.686013336457
 30
0.0
 10
3060.852272455264
 20
-1558.686013336457
 30
0.0
 10
3118.474595032007
 20
-1558.686013336457
 30
0.0
 10
3118.474595032007
 20
-1558.686013336457
 30
0.0
 10
3140.350951363347
 20
-1558.686013336457
 30
0.0
 10
3157.204496281007
 20
-1564.859521093162
 30
0.0
 10
3169.03522978499
 20
-1577.193410792768
 30
0.0
 10
3180.874713831508
 20
-1589.536051034907
 30
0.0
 10
3186.790080583502
 20
-1606.765869281469
 30
0.0
 10
3186.790080583502
 20
-1628.900366617514
 30
0.0
 10
3186.790080583502
 20
-1628.900366617514
 30
0.0
 10
3186.790080583502
 20
-1755.980120546249
 30
0.0
 10
3186.790080583502
 20
-1755.980120546249
 30
0.0
 10
3186.790080583502
 20
-1780.656650487997
 30
0.0
 10
3180.612197555533
 20
-1799.234052284567
 30
0.0
 10
3168.282683127189
 20
-1811.694824850894
 30
0.0
 10
3155.935667613787
 20
-1824.164347959758
 30
0.0
 10
3138.198317900344
 20
-1830.394734242923
 30
0.0
 10
3115.035631816721
 20
-1830.394734242923
 30
0.0
 10
3115.035631816721
 20
-1830.394734242923
 30
0.0
 10
3060.852272455264
 20
-1830.394734242923
 30
0.0
 10
3060.852272455264
 20
-1830.394734242923
 30
0.0
 10
3060.852272455264
 20
-1830.394734242923
 30
0.0
 10
3060.852272455264
 20
-1558.686013336457
 30
0.0
 10
3060.852272455264
 20
-1558.686013336457
 30
0.0
  0
SPLINE
  5
8EF
330
1242B
100
AcDbEntity
  8
Level 61
 62
     7
100
AcDbSpline
210
0.0
220
0.0
230
1.0
 70
    11
 71
     3
 72
    29
 73
    25
 74
     0
 42
0.0000000001
 43
0.0000000001
 40
0.0
 40
0.0
 40
0.0
 40
0.0
 40
1.0
 40
1.0
 40
1.0
 40
2.0
 40
2.0
 40
2.0
 40
3.0
 40
3.0
 40
3.0
 40
4.0
 40
4.0
 40
4.0
 40
5.0
 40
5.0
 40
5.0
 40
6.0
 40
6.0
 40
6.0
 40
7.0
 40
7.0
 40
7.0
 40
8.0
 40
8.0
 40
8.0
 40
8.0
 10
3099.774685639983
 20
-1793.756212659202
 30
0.0
 10
3099.774685639983
 20
-1793.756212659202
 30
0.0
 10
3117.722048374206
 20
-1793.756212659202
 30
0.0
 10
3117.722048374206
 20
-1793.756212659202
 30
0.0
 10
3128.642725454818
 20
-1793.756212659202
 30
0.0
 10
3136.413207223704
 20
-1791.091672458043
 30
0.0
 10
3140.98974096822
 20
-1785.745090970665
 30
0.0
 10
3145.575025255268
 20
-1780.402884754553
 30
0.0
 10
3147.858916856261
 20
-1771.761724003675
 30
0.0
 10
3147.858916856261
 20
-1759.795357090434
 30
0.0
 10
3147.858916856261
 20
-1759.795357090434
 30
0.0
 10
3147.858916856261
 20
-1628.900366617514
 30
0.0
 10
3147.858916856261
 20
-1628.900366617514
 30
0.0
 10
3147.858916856261
 20
-1617.708422718402
 30
0.0
 10
3145.575025255268
 20
-1609.316652429702
 30
0.0
 10
3140.98974096822
 20
-1603.71630520888
 30
0.0
 10
3136.413207223704
 20
-1598.124708530591
 30
0.0
 10
3128.642725454818
 20
-1595.320159648913
 30
0.0
 10
3117.722048374206
 20
-1595.320159648913
 30
0.0
 10
3117.722048374206
 20
-1595.320159648913
 30
0.0
 10
3099.774685639983
 20
-1595.320159648913
 30
0.0
 10
3099.774685639983
 20
-1595.320159648913
 30
0.0
 10
3099.774685639983
 20
-1595.320159648913
 30
0.0
 10
3099.774685639983
 20
-1793.756212659202
 30
0.0
 10
3099.774685639983
 20
-1793.756212659202
 30
0.0
  0
HATCH
  5
8F2
330
1242B
100
AcDbEntity
  8
Level 61
 62
     7
100
AcDbHatch
 10
0.0
 20
0.0
 30
0.0
210
0.0
220
0.0
230
-1.0
  2
SOLID
 70
     1
 71
     0
 91
        2
 92
        1
 93
        6
 72
     1
 10
-3060.852272455264
 20
-1830.394734242923
 11
-3060.852272455264
 21
-1558.686013336457
 72
     1
 10
-3060.852272455264
 20
-1558.686013336457
 11
-3118.474595032007
 21
-1558.686013336457
 72
     4
 94
        3
 73
     0
 74
     0
 95
       11
 96
        7
 40
0.0
 40
0.0
 40
0.0
 40
0.0
 40
0.5
 40
0.5
 40
0.5
 40
1.0
 40
1.0
 40
1.0
 40
1.0
 10
-3118.474595032007
 20
-1558.686013336457
 10
-3140.350951363347
 20
-1558.686013336457
 10
-3157.204496281007
 20
-1564.859521093162
 10
-3169.03522978499
 20
-1577.193410792768
 10
-3180.874713831508
 20
-1589.536051034907
 10
-3186.790080583502
 20
-1606.765869281469
 10
-3186.790080583502
 20
-1628.900366617514
 72
     1
 10
-3186.790080583502
 20
-1628.900366617514
 11
-3186.790080583502
 21
-1755.980120546249
 72
     4
 94
        3
 73
     0
 74
     0
 95
       11
 96
        7
 40
0.0
 40
0.0
 40
0.0
 40
0.0
 40
0.5
 40
0.5
 40
0.5
 40
1.0
 40
1.0
 40
1.0
 40
1.0
 10
-3186.790080583502
 20
-1755.980120546249
 10
-3186.790080583502
 20
-1780.656650487997
 10
-3180.612197555533
 20
-1799.234052284567
 10
-3168.282683127189
 20
-1811.694824850894
 10
-3155.935667613787
 20
-1824.164347959758
 10
-3138.198317900344
 20
-1830.394734242923
 10
-3115.035631816721
 20
-1830.394734242923
 72
     1
 10
-3115.035631816721
 20
-1830.394734242923
 11
-3060.852272455264
 21
-1830.394734242923
 97
        0
 92
       16
 93
        6
 72
     1
 10
-3099.774685639983
 20
-1595.320159648913
 11
-3099.774685639983
 21
-1793.756212659202
 72
     1
 10
-3099.774685639983
 20
-1793.756212659202
 11
-3117.722048374206
 21
-1793.756212659202
 72
     4
 94
        3
 73
     0
 74
     0
 95
       11
 96
        7
 40
0.0
 40
0.0
 40
0.0
 40
0.0
 40
0.5
 40
0.5
 40
0.5
 40
1.0
 40
1.0
 40
1.0
 40
1.0
 10
-3117.722048374206
 20
-1793.756212659202
 10
-3128.642725454818
 20
-1793.756212659202
 10
-3136.413207223704
 20
-1791.091672458043
 10
-3140.98974096822
 20
-1785.745090970665
 10
-3145.575025255268
 20
-1780.402884754553
 10
-3147.858916856261
 20
-1771.761724003675
 10
-3147.858916856261
 20
-1759.795357090434
 72
     1
 10
-3147.858916856261
 20
-1759.795357090434
 11
-3147.858916856261
 21
-1628.900366617514
 72
     4
 94
        3
 73
     0
 74
     0
 95
       11
 96
        7
 40
0.0
 40
0.0
 40
0.0
 40
0.0
 40
0.5
 40
0.5
 40
0.5
 40
1.0
 40
1.0
 40
1.0
 40
1.0
 10
-3147.858916856261
 20
-1628.900366617514
 10
-3147.858916856261
 20
-1617.708422718402
 10
-3145.575025255268
 20
-1609.316652429702
 10
-3140.98974096822
 20
-1603.71630520888
 10
-3136.413207223704
 20
-1598.124708530591
 10
-3128.642725454818
 20
-1595.320159648913
 10
-3117.722048374206
 20
-1595.320159648913
 72
     1
 10
-3117.722048374206
 20
-1595.320159648913
 11
-3099.774685639983
 21
-1595.320159648913
 97
        0
 75
     0
 76
     1
 98
        0
  0
ENDBLK
  5
134EE
330
1242B
100
AcDbEntity
  8
0
100
AcDbBlockEnd
  0
BLOCK
  5
134EF
330
1242E
100
AcDbEntity
  8
0
100
AcDbBlockBegin
  2
block 5
 70
     0
 10
0.0
 20
0.0
 30
0.0
  3
block 5
  1

  0
SPLINE
  5
907
330
1242E
100
AcDbEntity
  8
Level 61
 62
     7
100
AcDbSpline
210
0.0
220
0.0
230
1.0
 70
    11
 71
     3
 72
    83
 73
    79
 74
     0
 42
0.0000000001
 43
0.0000000001
 40
0.0
 40
0.0
 40
0.0
 40
0.0
 40
1.0
 40
1.0
 40
1.0
 40
2.0
 40
2.0
 40
2.0
 40
3.0
 40
3.0
 40
3.0
 40
4.0
 40
4.0
 40
4.0
 40
5.0
 40
5.0
 40
5.0
 40
6.0
 40
6.0
 40
6.0
 40
7.0
 40
7.0
 40
7.0
 40
8.0
 40
8.0
 40
8.0
 40
9.0
 40
9.0
 40
9.0
 40
10.0
 40
10.0
 40
10.0
 40
11.0
 40
11.0
 40
11.0
 40
12.0
 40
12.0
 40
12.0
 40
13.0
 40
13.0
 40
13.0
 40
14.0
 40
14.0
 40
14.0
 40
15.0
 40
15.0
 40
15.0
 40
16.0
 40
16.0
 40
16.0
 40
17.0
 40
17.0
 40
17.0
 40
18.0
 40
18.0
 40
18.0
 40
19.0
 40
19.0
 40
19.0
 40
20.0
 40
20.0
 40
20.0
 40
21.0
 40
21.0
 40
21.0
 40
22.0
 40
22.0
 40
22.0
 40
23.0
 40
23.0
 40
23.0
 40
24.0
 40
24.0
 40
24.0
 40
25.0
 40
25.0
 40
25.0
 40
26.0
 40
26.0
 40
26.0
 40
26.0
 10
3289.048920618705
 20
-1622.796863201073
 30
0.0
 10
3289.048920618705
 20
-1601.939945074776
 30
0.0
 10
3295.603076975571
 20
-1585.655185421729
 30
0.0
 10
3308.711389689303
 20
-1573.951334784464
 30
0.0
 10
3321.802201317983
 20
-1562.251859418466
 30
0.0
 10
3337.010644239526
 20
-1556.397746464199
 30
0.0
 10
3354.301716283815
 20
-1556.397746464199
 30
0.0
 10
3371.864055146609
 20
-1556.397746464199
 30
0.0
 10
3387.125001323351
 20
-1562.186230349471
 30
0.0
 10
3400.093305356564
 20
-1573.758822848749
 30
0.0
 10
3413.079110474846
 20
-1585.340165890557
 30
0.0
 10
3419.563262491454
 20
-1601.681804070067
 30
0.0
 10
3419.563262491454
 20
-1622.796863201073
 30
0.0
 10
3419.563262491454
 20
-1622.796863201073
 30
0.0
 10
3419.563262491454
 20
-1636.530839705885
 30
0.0
 10
3419.563262491454
 20
-1636.530839705885
 30
0.0
 10
3419.563262491454
 20
-1636.530839705885
 30
0.0
 10
3380.640849306743
 20
-1636.530839705885
 30
0.0
 10
3380.640849306743
 20
-1636.530839705885
 30
0.0
 10
3380.640849306743
 20
-1636.530839705885
 30
0.0
 10
3380.640849306743
 20
-1622.796863201073
 30
0.0
 10
3380.640849306743
 20
-1622.796863201073
 30
0.0
 10
3380.640849306743
 20
-1613.893186174219
 30
0.0
 10
3378.155695227502
 20
-1607.089639355172
 30
0.0
 10
3373.202888154086
 20
-1602.381847472669
 30
0.0
 10
3368.241330538145
 20
-1597.674055590167
 30
0.0
 10
3361.940939914712
 20
-1595.320159648913
 30
0.0
 10
3354.301716283815
 20
-1595.320159648913
 30
0.0
 10
3346.67124319544
 20
-1595.320159648913
 30
0.0
 10
3340.379603114554
 20
-1597.674055590167
 30
0.0
 10
3335.418045498605
 20
-1602.381847472669
 30
0.0
 10
3330.456487882664
 20
-1607.089639355172
 30
0.0
 10
3327.980084345953
 20
-1613.893186174219
 30
0.0
 10
3327.980084345953
 20
-1622.796863201073
 30
0.0
 10
3327.980084345953
 20
-1622.796863201073
 30
0.0
 10
3327.980084345953
 20
-1766.283884378307
 30
0.0
 10
3327.980084345953
 20
-1766.283884378307
 30
0.0
 10
3327.980084345953
 20
-1775.196311947695
 30
0.0
 10
3330.456487882664
 20
-1781.999858766739
 30
0.0
 10
3335.418045498605
 20
-1786.698900106711
 30
0.0
 10
3340.379603114554
 20
-1791.411067260481
 30
0.0
 10
3346.67124319544
 20
-1793.756212659202
 30
0.0
 10
3354.301716283815
 20
-1793.756212659202
 30
0.0
 10
3361.940939914712
 20
-1793.756212659202
 30
0.0
 10
3368.241330538145
 20
-1791.411067260481
 30
0.0
 10
3373.202888154086
 20
-1786.698900106711
 30
0.0
 10
3378.155695227502
 20
-1781.999858766739
 30
0.0
 10
3380.640849306743
 20
-1775.196311947695
 30
0.0
 10
3380.640849306743
 20
-1766.283884378307
 30
0.0
 10
3380.640849306743
 20
-1766.283884378307
 30
0.0
 10
3380.640849306743
 20
-1715.145713818176
 30
0.0
 10
3380.640849306743
 20
-1715.145713818176
 30
0.0
 10
3380.640849306743
 20
-1715.145713818176
 30
0.0
 10
3349.725182539296
 20
-1715.145713818176
 30
0.0
 10
3349.725182539296
 20
-1715.145713818176
 30
0.0
 10
3349.725182539296
 20
-1715.145713818176
 30
0.0
 10
3349.725182539296
 20
-1680.804209649243
 30
0.0
 10
3349.725182539296
 20
-1680.804209649243
 30
0.0
 10
3349.725182539296
 20
-1680.804209649243
 30
0.0
 10
3419.563262491454
 20
-1680.804209649243
 30
0.0
 10
3419.563262491454
 20
-1680.804209649243
 30
0.0
 10
3419.563262491454
 20
-1680.804209649243
 30
0.0
 10
3419.563262491454
 20
-1766.283884378307
 30
0.0
 10
3419.563262491454
 20
-1766.283884378307
 30
0.0
 10
3419.563262491454
 20
-1787.149553047136
 30
0.0
 10
3413.009106134585
 20
-1803.434312700184
 30
0.0
 10
3399.918294505915
 20
-1815.133788066182
 30
0.0
 10
3386.809981792176
 20
-1826.833263432182
 30
0.0
 10
3371.601538870633
 20
-1832.68300111518
 30
0.0
 10
3354.301716283815
 20
-1832.68300111518
 30
0.0
 10
3336.756878506083
 20
-1832.68300111518
 30
0.0
 10
3321.487181786804
 20
-1826.903267772441
 30
0.0
 10
3308.51012721107
 20
-1815.317549459367
 30
0.0
 10
3295.541823177846
 20
-1803.74495696009
 30
0.0
 10
3289.048920618705
 20
-1787.40331878058
 30
0.0
 10
3289.048920618705
 20
-1766.283884378307
 30
0.0
 10
3289.048920618705
 20
-1766.283884378307
 30
0.0
 10
3289.048920618705
 20
-1622.796863201073
 30
0.0
 10
3289.048920618705
 20
-1622.796863201073
 30
0.0
  0
HATCH
  5
90A
330
1242E
100
AcDbEntity
  8
Level 61
 62
     7
100
AcDbHatch
 10
0.0
 20
0.0
 30
0.0
210
0.0
220
0.0
230
-0.9999999999999999
  2
SOLID
 70
     1
 71
     0
 91
        1
 92
        0
 93
       14
 72
     4
 94
        3
 73
     0
 74
     0
 95
       17
 96
       13
 40
0.0
 40
0.0
 40
0.0
 40
0.0
 40
0.25
 40
0.25
 40
0.25
 40
0.5
 40
0.5
 40
0.5
 40
0.75
 40
0.75
 40
0.75
 40
1.0
 40
1.0
 40
1.0
 40
1.0
 10
-3289.048920618705
 20
-1622.796863201073
 10
-3289.048920618705
 20
-1601.939945074776
 10
-3295.603076975571
 20
-1585.655185421729
 10
-3308.711389689303
 20
-1573.951334784464
 10
-3321.802201317983
 20
-1562.251859418466
 10
-3337.010644239526
 20
-1556.397746464199
 10
-3354.301716283815
 20
-1556.397746464199
 10
-3371.864055146609
 20
-1556.397746464199
 10
-3387.125001323351
 20
-1562.186230349471
 10
-3400.093305356564
 20
-1573.758822848749
 10
-3413.079110474846
 20
-1585.340165890557
 10
-3419.563262491454
 20
-1601.681804070067
 10
-3419.563262491454
 20
-1622.796863201073
 72
     1
 10
-3419.563262491454
 20
-1622.796863201073
 11
-3419.563262491454
 21
-1636.530839705885
 72
     1
 10
-3419.563262491454
 20
-1636.530839705885
 11
-3380.640849306743
 21
-1636.530839705885
 72
     1
 10
-3380.640849306743
 20
-1636.530839705885
 11
-3380.640849306743
 21
-1622.796863201073
 72
     4
 94
        3
 73
     0
 74
     0
 95
       17
 96
       13
 40
0.0
 40
0.0
 40
0.0
 40
0.0
 40
0.2499999999999998
 40
0.2499999999999998
 40
0.2499999999999998
 40
0.4999999999999997
 40
0.4999999999999997
 40
0.4999999999999997
 40
0.7499999999999998
 40
0.7499999999999998
 40
0.7499999999999998
 40
1.0
 40
1.0
 40
1.0
 40
1.0
 10
-3380.640849306743
 20
-1622.796863201073
 10
-3380.640849306743
 20
-1613.893186174219
 10
-3378.155695227502
 20
-1607.089639355172
 10
-3373.202888154086
 20
-1602.381847472669
 10
-3368.241330538145
 20
-1597.674055590167
 10
-3361.940939914712
 20
-1595.320159648913
 10
-3354.301716283815
 20
-1595.320159648913
 10
-3346.67124319544
 20
-1595.320159648913
 10
-3340.379603114554
 20
-1597.674055590167
 10
-3335.418045498605
 20
-1602.381847472669
 10
-3330.456487882664
 20
-1607.089639355172
 10
-3327.980084345953
 20
-1613.893186174219
 10
-3327.980084345953
 20
-1622.796863201073
 72
     1
 10
-3327.980084345953
 20
-1622.796863201073
 11
-3327.980084345953
 21
-1766.283884378307
 72
     4
 94
        3
 73
     0
 74
     0
 95
       17
 96
       13
 40
0.0
 40
0.0
 40
0.0
 40
0.0
 40
0.2499999999999998
 40
0.2499999999999998
 40
0.2499999999999998
 40
0.5000000000000003
 40
0.5000000000000003
 40
0.5000000000000003
 40
0.7500000000000002
 40
0.7500000000000002
 40
0.7500000000000002
 40
1.0
 40
1.0
 40
1.0
 40
1.0
 10
-3327.980084345953
 20
-1766.283884378307
 10
-3327.980084345953
 20
-1775.196311947695
 10
-3330.456487882664
 20
-1781.999858766739
 10
-3335.418045498605
 20
-1786.698900106711
 10
-3340.379603114554
 20
-1791.411067260481
 10
-3346.67124319544
 20
-1793.756212659202
 10
-3354.301716283815
 20
-1793.756212659202
 10
-3361.940939914712
 20
-1793.756212659202
 10
-3368.241330538145
 20
-1791.411067260481
 10
-3373.202888154086
 20
-1786.698900106711
 10
-3378.155695227502
 20
-1781.999858766739
 10
-3380.640849306743
 20
-1775.196311947695
 10
-3380.640849306743
 20
-1766.283884378307
 72
     1
 10
-3380.640849306743
 20
-1766.283884378307
 11
-3380.640849306743
 21
-1715.145713818176
 72
     1
 10
-3380.640849306743
 20
-1715.145713818176
 11
-3349.725182539296
 21
-1715.145713818176
 72
     1
 10
-3349.725182539296
 20
-1715.145713818176
 11
-3349.725182539296
 21
-1680.804209649243
 72
     1
 10
-3349.725182539296
 20
-1680.804209649243
 11
-3419.563262491454
 21
-1680.804209649243
 72
     1
 10
-3419.563262491454
 20
-1680.804209649243
 11
-3419.563262491454
 21
-1766.283884378307
 72
     4
 94
        3
 73
     0
 74
     0
 95
       17
 96
       13
 40
0.0
 40
0.0
 40
0.0
 40
0.0
 40
0.2500000000000006
 40
0.2500000000000006
 40
0.2500000000000006
 40
0.5000000000000003
 40
0.5000000000000003
 40
0.5000000000000003
 40
0.7500000000000002
 40
0.7500000000000002
 40
0.7500000000000002
 40
1.0
 40
1.0
 40
1.0
 40
1.0
 10
-3419.563262491454
 20
-1766.283884378307
 10
-3419.563262491454
 20
-1787.149553047136
 10
-3413.009106134585
 20
-1803.434312700184
 10
-3399.918294505915
 20
-1815.133788066182
 10
-3386.809981792176
 20
-1826.833263432182
 10
-3371.601538870633
 20
-1832.68300111518
 10
-3354.301716283815
 20
-1832.68300111518
 10
-3336.756878506083
 20
-1832.68300111518
 10
-3321.487181786804
 20
-1826.903267772441
 10
-3308.51012721107
 20
-1815.317549459367
 10
-3295.541823177846
 20
-1803.74495696009
 10
-3289.048920618705
 20
-1787.40331878058
 10
-3289.048920618705
 20
-1766.283884378307
 72
     1
 10
-3289.048920618705
 20
-1766.283884378307
 11
-3289.048920618705
 21
-1622.796863201073
 97
        0
 75
     0
 76
     1
 98
        0
  0
SPLINE
  5
90F
330
1242E
100
AcDbEntity
  8
Level 61
 62
     7
100
AcDbSpline
210
0.0
220
0.0
230
1.0
 70
    11
 71
     3
 72
    38
 73
    34
 74
     0
 42
0.0000000001
 43
0.0000000001
 40
0.0
 40
0.0
 40
0.0
 40
0.0
 40
1.0
 40
1.0
 40
1.0
 40
2.0
 40
2.0
 40
2.0
 40
3.0
 40
3.0
 40
3.0
 40
4.0
 40
4.0
 40
4.0
 40
5.0
 40
5.0
 40
5.0
 40
6.0
 40
6.0
 40
6.0
 40
7.0
 40
7.0
 40
7.0
 40
8.0
 40
8.0
 40
8.0
 40
9.0
 40
9.0
 40
9.0
 40
10.0
 40
10.0
 40
10.0
 40
11.0
 40
11.0
 40
11.0
 40
11.0
 10
3452.386547530994
 20
-1558.686013336457
 30
0.0
 10
3452.386547530994
 20
-1558.686013336457
 30
0.0
 10
3514.970427723682
 20
-1558.686013336457
 30
0.0
 10
3514.970427723682
 20
-1558.686013336457
 30
0.0
 10
3560.762016796434
 20
-1558.686013336457
 30
0.0
 10
3583.662186604077
 20
-1585.274536821564
 30
0.0
 10
3583.662186604077
 20
-1638.438457977978
 30
0.0
 10
3583.662186604077
 20
-1654.981358635735
 30
0.0
 10
3581.115778727111
 20
-1668.724085683081
 30
0.0
 10
3576.022962973177
 20
-1679.653513306218
 30
0.0
 10
3570.938897761767
 20
-1690.59606674315
 30
0.0
 10
3562.284611197094
 20
-1699.499743770003
 30
0.0
 10
3550.077604364211
 20
-1706.373294929309
 30
0.0
 10
3550.077604364211
 20
-1706.373294929309
 30
0.0
 10
3592.062707435307
 20
-1830.394734242923
 30
0.0
 10
3592.062707435307
 20
-1830.394734242923
 30
0.0
 10
3592.062707435307
 20
-1830.394734242923
 30
0.0
 10
3550.961409159998
 20
-1830.355356801526
 30
0.0
 10
3550.961409159998
 20
-1830.355356801526
 30
0.0
 10
3550.961409159998
 20
-1830.355356801526
 30
0.0
 10
3514.532900597053
 20
-1714.406292974176
 30
0.0
 10
3514.532900597053
 20
-1714.406292974176
 30
0.0
 10
3514.532900597053
 20
-1714.406292974176
 30
0.0
 10
3491.300210173176
 20
-1714.384416617847
 30
0.0
 10
3491.300210173176
 20
-1714.384416617847
 30
0.0
 10
3491.300210173176
 20
-1714.384416617847
 30
0.0
 10
3491.300210173176
 20
-1830.394734242923
 30
0.0
 10
3491.300210173176
 20
-1830.394734242923
 30
0.0
 10
3491.300210173176
 20
-1830.394734242923
 30
0.0
 10
3452.386547530994
 20
-1830.394734242923
 30
0.0
 10
3452.386547530994
 20
-1830.394734242923
 30
0.0
 10
3452.386547530994
 20
-1830.394734242923
 30
0.0
 10
3452.386547530994
 20
-1558.686013336457
 30
0.0
 10
3452.386547530994
 20
-1558.686013336457
 30
0.0
  0
SPLINE
  5
912
330
1242E
100
AcDbEntity
  8
Level 61
 62
     7
100
AcDbSpline
210
0.0
220
0.0
230
1.0
 70
    11
 71
     3
 72
    26
 73
    22
 74
     0
 42
0.0000000001
 43
0.0000000001
 40
0.0
 40
0.0
 40
0.0
 40
0.0
 40
1.0
 40
1.0
 40
1.0
 40
2.0
 40
2.0
 40
2.0
 40
3.0
 40
3.0
 40
3.0
 40
4.0
 40
4.0
 40
4.0
 40
5.0
 40
5.0
 40
5.0
 40
6.0
 40
6.0
 40
6.0
 40
7.0
 40
7.0
 40
7.0
 40
7.0
 10
3491.300210173176
 20
-1680.038537177647
 30
0.0
 10
3491.300210173176
 20
-1680.038537177647
 30
0.0
 10
3513.439082780482
 20
-1680.038537177647
 30
0.0
 10
3513.439082780482
 20
-1680.038537177647
 30
0.0
 10
3525.908605889352
 20
-1680.038537177647
 30
0.0
 10
3534.247872922861
 20
-1676.669578302621
 30
0.0
 10
3538.439382795943
 20
-1669.927285281303
 30
0.0
 10
3542.639643211562
 20
-1663.189367531252
 30
0.0
 10
3544.739773419366
 20
-1652.439326030033
 30
0.0
 10
3544.739773419366
 20
-1637.681536048913
 30
0.0
 10
3544.739773419366
 20
-1622.669980334351
 30
0.0
 10
3542.569638871297
 20
-1611.858685035402
 30
0.0
 10
3538.238120317692
 20
-1605.24327488081
 30
0.0
 10
3533.915352306616
 20
-1598.627864726212
 30
0.0
 10
3525.016050551029
 20
-1595.320159648913
 30
0.0
 10
3511.5314645084
 20
-1595.320159648913
 30
0.0
 10
3511.5314645084
 20
-1595.320159648913
 30
0.0
 10
3491.300210173176
 20
-1595.320159648913
 30
0.0
 10
3491.300210173176
 20
-1595.320159648913
 30
0.0
 10
3491.300210173176
 20
-1595.320159648913
 30
0.0
 10
3491.300210173176
 20
-1680.038537177647
 30
0.0
 10
3491.300210173176
 20
-1680.038537177647
 30
0.0
  0
HATCH
  5
915
330
1242E
100
AcDbEntity
  8
Level 61
 62
     7
100
AcDbHatch
 10
0.0
 20
0.0
 30
0.0
210
0.0
220
0.0
230
-1.0
  2
SOLID
 70
     1
 71
     0
 91
        2
 92
        1
 93
        9
 72
     1
 10
-3452.386547530994
 20
-1830.394734242923
 11
-3452.386547530994
 21
-1558.686013336457
 72
     1
 10
-3452.386547530994
 20
-1558.686013336457
 11
-3514.970427723682
 21
-1558.686013336457
 72
     4
 94
        3
 73
     0
 74
     0
 95
       14
 96
       10
 40
0.0
 40
0.0
 40
0.0
 40
0.0
 40
0.3333333333333334
 40
0.3333333333333334
 40
0.3333333333333334
 40
0.6666666666666666
 40
0.6666666666666666
 40
0.6666666666666666
 40
1.0
 40
1.0
 40
1.0
 40
1.0
 10
-3514.970427723682
 20
-1558.686013336457
 10
-3560.762016796434
 20
-1558.686013336457
 10
-3583.66218660407
 20
-1585.274536821564
 10
-3583.66218660407
 20
-1638.438457977978
 10
-3583.66218660407
 20
-1654.981358635735
 10
-3581.115778727111
 20
-1668.724085683081
 10
-3576.022962973177
 20
-1679.653513306218
 10
-3570.938897761767
 20
-1690.59606674315
 10
-3562.284611197094
 20
-1699.499743770003
 10
-3550.077604364211
 20
-1706.373294929309
 72
     1
 10
-3550.077604364211
 20
-1706.373294929309
 11
-3592.062707435307
 21
-1830.394734242923
 72
     1
 10
-3592.062707435307
 20
-1830.394734242923
 11
-3550.961409159998
 21
-1830.355356801526
 72
     1
 10
-3550.961409159998
 20
-1830.355356801526
 11
-3514.532900597053
 21
-1714.406292974176
 72
     1
 10
-3514.532900597053
 20
-1714.406292974176
 11
-3491.300210173176
 21
-1714.384416617847
 72
     1
 10
-3491.300210173176
 20
-1714.384416617847
 11
-3491.300210173176
 21
-1830.394734242923
 72
     1
 10
-3491.300210173176
 20
-1830.394734242923
 11
-3452.386547530994
 21
-1830.394734242923
 97
        0
 92
       16
 93
        4
 72
     1
 10
-3491.300210173176
 20
-1595.320159648913
 11
-3491.300210173176
 21
-1680.038537177647
 72
     1
 10
-3491.300210173176
 20
-1680.038537177647
 11
-3513.439082780482
 21
-1680.038537177647
 72
     4
 94
        3
 73
     0
 74
     0
 95
       17
 96
       13
 40
0.0
 40
0.0
 40
0.0
 40
0.0
 40
0.25
 40
0.25
 40
0.25
 40
0.5
 40
0.5
 40
0.5
 40
0.75
 40
0.75
 40
0.75
 40
1.0
 40
1.0
 40
1.0
 40
1.0
 10
-3513.439082780482
 20
-1680.038537177647
 10
-3525.908605889352
 20
-1680.038537177647
 10
-3534.247872922861
 20
-1676.669578302621
 10
-3538.439382795943
 20
-1669.927285281303
 10
-3542.639643211562
 20
-1663.189367531252
 10
-3544.739773419366
 20
-1652.439326030033
 10
-3544.739773419366
 20
-1637.681536048913
 10
-3544.739773419366
 20
-1622.669980334351
 10
-3542.569638871297
 20
-1611.858685035402
 10
-3538.238120317692
 20
-1605.24327488081
 10
-3533.915352306616
 20
-1598.627864726212
 10
-3525.016050551029
 20
-1595.320159648913
 10
-3511.5314645084
 20
-1595.320159648913
 72
     1
 10
-3511.5314645084
 20
-1595.320159648913
 11
-3491.300210173176
 21
-1595.320159648913
 97
        0
 75
     0
 76
     1
 98
        0
  0
SPLINE
  5
921
330
1242E
100
AcDbEntity
  8
Level 61
 62
     7
100
AcDbSpline
210
0.0
220
0.0
230
1.0
 70
    11
 71
     3
 72
    35
 73
    31
 74
     0
 42
0.0000000001
 43
0.0000000001
 40
0.0
 40
0.0
 40
0.0
 40
0.0
 40
1.0
 40
1.0
 40
1.0
 40
2.0
 40
2.0
 40
2.0
 40
3.0
 40
3.0
 40
3.0
 40
4.0
 40
4.0
 40
4.0
 40
5.0
 40
5.0
 40
5.0
 40
6.0
 40
6.0
 40
6.0
 40
7.0
 40
7.0
 40
7.0
 40
8.0
 40
8.0
 40
8.0
 40
9.0
 40
9.0
 40
9.0
 40
10.0
 40
10.0
 40
10.0
 40
10.0
 10
3611.130139613706
 20
-1622.796863201073
 30
0.0
 10
3611.130139613706
 20
-1601.939945074776
 30
0.0
 10
3617.684295970576
 20
-1585.655185421729
 30
0.0
 10
3630.792608684315
 20
-1573.951334784464
 30
0.0
 10
3643.883420312985
 20
-1562.251859418466
 30
0.0
 10
3659.091863234527
 20
-1556.397746464199
 30
0.0
 10
3676.391685821345
 20
-1556.397746464199
 30
0.0
 10
3693.945274141614
 20
-1556.397746464199
 30
0.0
 10
3709.206220318349
 20
-1562.186230349471
 30
0.0
 10
3722.183274894098
 20
-1573.758822848749
 30
0.0
 10
3735.160329469847
 20
-1585.340165890557
 30
0.0
 10
3741.644481486455
 20
-1601.681804070067
 30
0.0
 10
3741.644481486455
 20
-1622.796863201073
 30
0.0
 10
3741.644481486455
 20
-1622.796863201073
 30
0.0
 10
3741.644481486455
 20
-1766.283884378307
 30
0.0
 10
3741.644481486455
 20
-1766.283884378307
 30
0.0
 10
3741.644481486455
 20
-1787.149553047136
 30
0.0
 10
3735.09032512959
 20
-1803.434312700184
 30
0.0
 10
3721.999513500912
 20
-1815.133788066182
 30
0.0
 10
3708.89120078718
 20
-1826.833263432182
 30
0.0
 10
3693.682757865634
 20
-1832.68300111518
 30
0.0
 10
3676.391685821345
 20
-1832.68300111518
 30
0.0
 10
3658.838097501084
 20
-1832.68300111518
 30
0.0
 10
3643.568400781813
 20
-1826.903267772441
 30
0.0
 10
3630.6000967486
 20
-1815.317549459367
 30
0.0
 10
3617.631792715372
 20
-1803.74495696009
 30
0.0
 10
3611.130139613706
 20
-1787.40331878058
 30
0.0
 10
3611.130139613706
 20
-1766.283884378307
 30
0.0
 10
3611.130139613706
 20
-1766.283884378307
 30
0.0
 10
3611.130139613706
 20
-1622.796863201073
 30
0.0
 10
3611.130139613706
 20
-1622.796863201073
 30
0.0
  0
SPLINE
  5
924
330
1242E
100
AcDbEntity
  8
Level 61
 62
     7
100
AcDbSpline
210
0.0
220
0.0
230
1.0
 70
    11
 71
     3
 72
    35
 73
    31
 74
     0
 42
0.0000000001
 43
0.0000000001
 40
0.0
 40
0.0
 40
0.0
 40
0.0
 40
1.0
 40
1.0
 40
1.0
 40
2.0
 40
2.0
 40
2.0
 40
3.0
 40
3.0
 40
3.0
 40
4.0
 40
4.0
 40
4.0
 40
5.0
 40
5.0
 40
5.0
 40
6.0
 40
6.0
 40
6.0
 40
7.0
 40
7.0
 40
7.0
 40
8.0
 40
8.0
 40
8.0
 40
9.0
 40
9.0
 40
9.0
 40
10.0
 40
10.0
 40
10.0
 40
10.0
 10
3650.061303340954
 20
-1766.283884378307
 30
0.0
 10
3650.061303340954
 20
-1775.196311947695
 30
0.0
 10
3652.537706877658
 20
-1781.999858766739
 30
0.0
 10
3657.499264493607
 20
-1786.698900106711
 30
0.0
 10
3662.460822109551
 20
-1791.411067260481
 30
0.0
 10
3668.752462190449
 20
-1793.756212659202
 30
0.0
 10
3676.391685821345
 20
-1793.756212659202
 30
0.0
 10
3684.022158909713
 20
-1793.756212659202
 30
0.0
 10
3690.322549533139
 20
-1791.411067260481
 30
0.0
 10
3695.284107149088
 20
-1786.698900106711
 30
0.0
 10
3700.236914222503
 20
-1781.999858766739
 30
0.0
 10
3702.722068301748
 20
-1775.196311947695
 30
0.0
 10
3702.722068301748
 20
-1766.283884378307
 30
0.0
 10
3702.722068301748
 20
-1766.283884378307
 30
0.0
 10
3702.722068301748
 20
-1622.796863201073
 30
0.0
 10
3702.722068301748
 20
-1622.796863201073
 30
0.0
 10
3702.722068301748
 20
-1613.893186174219
 30
0.0
 10
3700.236914222503
 20
-1607.089639355172
 30
0.0
 10
3695.284107149088
 20
-1602.381847472669
 30
0.0
 10
3690.322549533139
 20
-1597.674055590167
 30
0.0
 10
3684.022158909713
 20
-1595.320159648913
 30
0.0
 10
3676.391685821345
 20
-1595.320159648913
 30
0.0
 10
3668.752462190449
 20
-1595.320159648913
 30
0.0
 10
3662.460822109551
 20
-1597.674055590167
 30
0.0
 10
3657.499264493607
 20
-1602.381847472669
 30
0.0
 10
3652.537706877658
 20
-1607.089639355172
 30
0.0
 10
3650.061303340954
 20
-1613.893186174219
 30
0.0
 10
3650.061303340954
 20
-1622.796863201073
 30
0.0
 10
3650.061303340954
 20
-1622.796863201073
 30
0.0
 10
3650.061303340954
 20
-1766.283884378307
 30
0.0
 10
3650.061303340954
 20
-1766.283884378307
 30
0.0
  0
HATCH
  5
927
330
1242E
100
AcDbEntity
  8
Level 61
 62
     7
100
AcDbHatch
 10
0.0
 20
0.0
 30
0.0
210
0.0
220
0.0
230
-0.9999999999999999
  2
SOLID
 70
     1
 71
     0
 91
        2
 92
        1
 93
        4
 72
     4
 94
        3
 73
     0
 74
     0
 95
       17
 96
       13
 40
0.0
 40
0.0
 40
0.0
 40
0.0
 40
0.2500000000000002
 40
0.2500000000000002
 40
0.2500000000000002
 40
0.5000000000000002
 40
0.5000000000000002
 40
0.5000000000000002
 40
0.7500000000000001
 40
0.7500000000000001
 40
0.7500000000000001
 40
1.0
 40
1.0
 40
1.0
 40
1.0
 10
-3741.644481486455
 20
-1766.283884378307
 10
-3741.644481486455
 20
-1787.149553047136
 10
-3735.090325129585
 20
-1803.434312700184
 10
-3721.999513500912
 20
-1815.133788066182
 10
-3708.89120078718
 20
-1826.833263432182
 10
-3693.682757865633
 20
-1832.68300111518
 10
-3676.391685821345
 20
-1832.68300111518
 10
-3658.838097501084
 20
-1832.68300111518
 10
-3643.568400781805
 20
-1826.903267772441
 10
-3630.600096748599
 20
-1815.317549459367
 10
-3617.631792715372
 20
-1803.74495696009
 10
-3611.130139613706
 20
-1787.40331878058
 10
-3611.130139613706
 20
-1766.283884378307
 72
     1
 10
-3611.130139613706
 20
-1766.283884378307
 11
-3611.130139613706
 21
-1622.796863201073
 72
     4
 94
        3
 73
     0
 74
     0
 95
       17
 96
       13
 40
0.0
 40
0.0
 40
0.0
 40
0.0
 40
0.25
 40
0.25
 40
0.25
 40
0.5
 40
0.5
 40
0.5
 40
0.7500000000000001
 40
0.7500000000000001
 40
0.7500000000000001
 40
1.0
 40
1.0
 40
1.0
 40
1.0
 10
-3611.130139613706
 20
-1622.796863201073
 10
-3611.130139613706
 20
-1601.939945074776
 10
-3617.684295970575
 20
-1585.655185421729
 10
-3630.792608684314
 20
-1573.951334784464
 10
-3643.883420312984
 20
-1562.251859418466
 10
-3659.091863234527
 20
-1556.397746464199
 10
-3676.391685821345
 20
-1556.397746464199
 10
-3693.945274141613
 20
-1556.397746464199
 10
-3709.206220318348
 20
-1562.186230349471
 10
-3722.183274894097
 20
-1573.758822848749
 10
-3735.160329469847
 20
-1585.340165890557
 10
-3741.644481486455
 20
-1601.681804070067
 10
-3741.644481486455
 20
-1622.796863201073
 72
     1
 10
-3741.644481486455
 20
-1622.796863201073
 11
-3741.644481486455
 21
-1766.283884378307
 97
        0
 92
       16
 93
        4
 72
     4
 94
        3
 73
     0
 74
     0
 95
       17
 96
       13
 40
0.0
 40
0.0
 40
0.0
 40
0.0
 40
0.2500000000000002
 40
0.2500000000000002
 40
0.2500000000000002
 40
0.5000000000000002
 40
0.5000000000000002
 40
0.5000000000000002
 40
0.7500000000000001
 40
0.7500000000000001
 40
0.7500000000000001
 40
1.0
 40
1.0
 40
1.0
 40
1.0
 10
-3702.72206830174
 20
-1622.796863201073
 10
-3702.72206830174
 20
-1613.893186174219
 10
-3700.236914222503
 20
-1607.089639355172
 10
-3695.284107149087
 20
-1602.381847472669
 10
-3690.322549533139
 20
-1597.674055590167
 10
-3684.022158909712
 20
-1595.320159648913
 10
-3676.391685821345
 20
-1595.320159648913
 10
-3668.752462190448
 20
-1595.320159648913
 10
-3662.460822109551
 20
-1597.674055590167
 10
-3657.499264493606
 20
-1602.381847472669
 10
-3652.537706877658
 20
-1607.089639355172
 10
-3650.06130334095
 20
-1613.893186174219
 10
-3650.06130334095
 20
-1622.796863201073
 72
     1
 10
-3650.06130334095
 20
-1622.796863201073
 11
-3650.06130334095
 21
-1766.283884378307
 72
     4
 94
        3
 73
     0
 74
     0
 95
       17
 96
       13
 40
0.0
 40
0.0
 40
0.0
 40
0.0
 40
0.25
 40
0.25
 40
0.25
 40
0.5
 40
0.5
 40
0.5
 40
0.7500000000000001
 40
0.7500000000000001
 40
0.7500000000000001
 40
1.0
 40
1.0
 40
1.0
 40
1.0
 10
-3650.06130334095
 20
-1766.283884378307
 10
-3650.06130334095
 20
-1775.196311947695
 10
-3652.537706877658
 20
-1781.999858766739
 10
-3657.499264493606
 20
-1786.698900106711
 10
-3662.460822109551
 20
-1791.411067260481
 10
-3668.752462190448
 20
-1793.756212659202
 10
-3676.391685821345
 20
-1793.756212659202
 10
-3684.022158909712
 20
-1793.756212659202
 10
-3690.322549533139
 20
-1791.411067260481
 10
-3695.284107149087
 20
-1786.698900106711
 10
-3700.236914222503
 20
-1781.999858766739
 10
-3702.72206830174
 20
-1775.196311947695
 10
-3702.72206830174
 20
-1766.283884378307
 72
     1
 10
-3702.72206830174
 20
-1766.283884378307
 11
-3702.72206830174
 21
-1622.796863201073
 97
        0
 75
     0
 76
     1
 98
        0
  0
SPLINE
  5
93B
330
1242E
100
AcDbEntity
  8
Level 61
 62
     7
100
AcDbSpline
210
0.0
220
0.0
230
1.0
 70
    11
 71
     3
 72
    44
 73
    40
 74
     0
 42
0.0000000001
 43
0.0000000001
 40
0.0
 40
0.0
 40
0.0
 40
0.0
 40
1.0
 40
1.0
 40
1.0
 40
2.0
 40
2.0
 40
2.0
 40
3.0
 40
3.0
 40
3.0
 40
4.0
 40
4.0
 40
4.0
 40
5.0
 40
5.0
 40
5.0
 40
6.0
 40
6.0
 40
6.0
 40
7.0
 40
7.0
 40
7.0
 40
8.0
 40
8.0
 40
8.0
 40
9.0
 40
9.0
 40
9.0
 40
10.0
 40
10.0
 40
10.0
 40
11.0
 40
11.0
 40
11.0
 40
12.0
 40
12.0
 40
12.0
 40
13.0
 40
13.0
 40
13.0
 40
13.0
 10
3900.396824111704
 20
-1769.333448450895
 30
0.0
 10
3900.396824111704
 20
-1787.149553047136
 30
0.0
 10
3894.280194881463
 20
-1802.156733490433
 30
0.0
 10
3882.073188048573
 20
-1814.36374032332
 30
0.0
 10
3869.857430673153
 20
-1826.579497698739
 30
0.0
 10
3854.972757825315
 20
-1832.68300111518
 30
0.0
 10
3837.419169505047
 20
-1832.68300111518
 30
0.0
 10
3819.874331727318
 20
-1832.68300111518
 30
0.0
 10
3804.980908336944
 20
-1826.579497698739
 30
0.0
 10
3792.773901504061
 20
-1814.36374032332
 30
0.0
 10
3780.56689467117
 20
-1802.156733490433
 30
0.0
 10
3774.459015983463
 20
-1787.149553047136
 30
0.0
 10
3774.459015983463
 20
-1769.333448450895
 30
0.0
 10
3774.459015983463
 20
-1769.333448450895
 30
0.0
 10
3774.459015983463
 20
-1558.686013336457
 30
0.0
 10
3774.459015983463
 20
-1558.686013336457
 30
0.0
 10
3774.459015983463
 20
-1558.686013336457
 30
0.0
 10
3813.372678625645
 20
-1558.686013336457
 30
0.0
 10
3813.372678625645
 20
-1558.686013336457
 30
0.0
 10
3813.372678625645
 20
-1558.686013336457
 30
0.0
 10
3813.372678625645
 20
-1765.518211906711
 30
0.0
 10
3813.372678625645
 20
-1765.518211906711
 30
0.0
 10
3813.372678625645
 20
-1774.680029938274
 30
0.0
 10
3815.534062631185
 20
-1781.680463964302
 30
0.0
 10
3819.874331727318
 20
-1786.510763442263
 30
0.0
 10
3824.188349195862
 20
-1791.345438191488
 30
0.0
 10
3830.03371160759
 20
-1793.756212659202
 30
0.0
 10
3837.419169505047
 20
-1793.756212659202
 30
0.0
 10
3853.450163424659
 20
-1793.756212659202
 30
0.0
 10
3861.456909841927
 20
-1784.349379436724
 30
0.0
 10
3861.456909841927
 20
-1765.518211906711
 30
0.0
 10
3861.456909841927
 20
-1765.518211906711
 30
0.0
 10
3861.456909841927
 20
-1558.686013336457
 30
0.0
 10
3861.456909841927
 20
-1558.686013336457
 30
0.0
 10
3861.456909841927
 20
-1558.686013336457
 30
0.0
 10
3900.396824111704
 20
-1558.686013336457
 30
0.0
 10
3900.396824111704
 20
-1558.686013336457
 30
0.0
 10
3900.396824111704
 20
-1558.686013336457
 30
0.0
 10
3900.396824111704
 20
-1769.333448450895
 30
0.0
 10
3900.396824111704
 20
-1769.333448450895
 30
0.0
  0
HATCH
  5
93E
330
1242E
100
AcDbEntity
  8
Level 61
 62
     7
100
AcDbHatch
 10
0.0
 20
0.0
 30
0.0
210
0.0
220
0.0
230
-1.0
  2
SOLID
 70
     1
 71
     0
 91
        1
 92
        0
 93
        8
 72
     4
 94
        3
 73
     0
 74
     0
 95
       17
 96
       13
 40
0.0
 40
0.0
 40
0.0
 40
0.0
 40
0.25
 40
0.25
 40
0.25
 40
0.5
 40
0.5
 40
0.5
 40
0.75
 40
0.75
 40
0.75
 40
1.0
 40
1.0
 40
1.0
 40
1.0
 10
-3900.396824111704
 20
-1769.333448450895
 10
-3900.396824111704
 20
-1787.149553047136
 10
-3894.280194881463
 20
-1802.156733490433
 10
-3882.073188048573
 20
-1814.36374032332
 10
-3869.857430673153
 20
-1826.579497698739
 10
-3854.972757825315
 20
-1832.68300111518
 10
-3837.419169505047
 20
-1832.68300111518
 10
-3819.874331727318
 20
-1832.68300111518
 10
-3804.980908336944
 20
-1826.579497698739
 10
-3792.773901504061
 20
-1814.36374032332
 10
-3780.56689467117
 20
-1802.156733490433
 10
-3774.459015983463
 20
-1787.149553047136
 10
-3774.459015983463
 20
-1769.333448450895
 72
     1
 10
-3774.459015983463
 20
-1769.333448450895
 11
-3774.459015983463
 21
-1558.686013336457
 72
     1
 10
-3774.459015983463
 20
-1558.686013336457
 11
-3813.372678625645
 21
-1558.686013336457
 72
     1
 10
-3813.372678625645
 20
-1558.686013336457
 11
-3813.372678625645
 21
-1765.518211906711
 72
     4
 94
        3
 73
     0
 74
     0
 95
       14
 96
       10
 40
0.0
 40
0.0
 40
0.0
 40
0.0
 40
0.3333333333333332
 40
0.3333333333333332
 40
0.3333333333333332
 40
0.6666666666666663
 40
0.6666666666666663
 40
0.6666666666666663
 40
1.0
 40
1.0
 40
1.0
 40
1.0
 10
-3813.372678625645
 20
-1765.518211906711
 10
-3813.372678625645
 20
-1774.680029938274
 10
-3815.534062631185
 20
-1781.680463964302
 10
-3819.874331727318
 20
-1786.510763442263
 10
-3824.188349195862
 20
-1791.345438191488
 10
-3830.03371160759
 20
-1793.756212659202
 10
-3837.419169505047
 20
-1793.756212659202
 10
-3853.450163424659
 20
-1793.756212659202
 10
-3861.456909841927
 20
-1784.349379436724
 10
-3861.456909841927
 20
-1765.518211906711
 72
     1
 10
-3861.456909841927
 20
-1765.518211906711
 11
-3861.456909841927
 21
-1558.686013336457
 72
     1
 10
-3861.456909841927
 20
-1558.686013336457
 11
-3900.396824111704
 21
-1558.686013336457
 72
     1
 10
-3900.396824111704
 20
-1558.686013336457
 11
-3900.396824111704
 21
-1769.333448450895
 97
        0
 75
     0
 76
     1
 98
        0
  0
SPLINE
  5
943
330
1242E
100
AcDbEntity
  8
Level 61
 62
     7
100
AcDbSpline
210
0.0
220
0.0
230
1.0
 70
    11
 71
     3
 72
    44
 73
    40
 74
     0
 42
0.0000000001
 43
0.0000000001
 40
0.0
 40
0.0
 40
0.0
 40
0.0
 40
1.0
 40
1.0
 40
1.0
 40
2.0
 40
2.0
 40
2.0
 40
3.0
 40
3.0
 40
3.0
 40
4.0
 40
4.0
 40
4.0
 40
5.0
 40
5.0
 40
5.0
 40
6.0
 40
6.0
 40
6.0
 40
7.0
 40
7.0
 40
7.0
 40
8.0
 40
8.0
 40
8.0
 40
9.0
 40
9.0
 40
9.0
 40
10.0
 40
10.0
 40
10.0
 40
11.0
 40
11.0
 40
11.0
 40
12.0
 40
12.0
 40
12.0
 40
13.0
 40
13.0
 40
13.0
 40
13.0
 10
3935.495250209693
 20
-1558.686013336457
 30
0.0
 10
3935.495250209693
 20
-1558.686013336457
 30
0.0
 10
3993.878869986762
 20
-1558.686013336457
 30
0.0
 10
3993.878869986762
 20
-1558.686013336457
 30
0.0
 10
4005.070813885875
 20
-1558.686013336457
 30
0.0
 10
4014.617655788872
 20
-1560.151729210656
 30
0.0
 10
4022.501894610687
 20
-1563.074410416523
 30
0.0
 10
4030.386133432505
 20
-1566.001466893657
 30
0.0
 10
4037.640333191968
 20
-1570.893020169344
 30
0.0
 10
4044.246992804026
 20
-1577.766571328649
 30
0.0
 10
4050.871153501164
 20
-1584.635747216689
 30
0.0
 10
4055.447687245676
 20
-1592.843756112207
 30
0.0
 10
4057.994095122649
 20
-1602.381847472669
 30
0.0
 10
4060.540502999622
 20
-1611.91993883313
 30
0.0
 10
4061.809331666835
 20
-1624.958247206609
 30
0.0
 10
4061.809331666835
 20
-1641.496772593098
 30
0.0
 10
4061.809331666835
 20
-1654.727592902291
 30
0.0
 10
4061.100537721704
 20
-1665.28949773906
 30
0.0
 10
4059.70920145902
 20
-1673.169361289607
 30
0.0
 10
4058.309114653817
 20
-1681.057975382688
 30
0.0
 10
4055.062663374247
 20
-1689.139101411482
 30
0.0
 10
4049.978598162845
 20
-1697.399613562196
 30
0.0
 10
4044.885782408914
 20
-1705.673251526707
 30
0.0
 10
4037.82409458515
 20
-1712.227407883577
 30
0.0
 10
4028.802285234113
 20
-1717.053332090268
 30
0.0
 10
4019.762974798003
 20
-1721.892382110759
 30
0.0
 10
4008.247260825185
 20
-1724.303156578473
 30
0.0
 10
3994.272644400724
 20
-1724.303156578473
 30
0.0
 10
3994.272644400724
 20
-1724.303156578473
 30
0.0
 10
3974.417663394412
 20
-1724.303156578473
 30
0.0
 10
3974.417663394412
 20
-1724.303156578473
 30
0.0
 10
3974.417663394412
 20
-1724.303156578473
 30
0.0
 10
3974.417663394412
 20
-1830.394734242923
 30
0.0
 10
3974.417663394412
 20
-1830.394734242923
 30
0.0
 10
3974.417663394412
 20
-1830.394734242923
 30
0.0
 10
3935.495250209693
 20
-1830.394734242923
 30
0.0
 10
3935.495250209693
 20
-1830.394734242923
 30
0.0
 10
3935.495250209693
 20
-1830.394734242923
 30
0.0
 10
3935.495250209693
 20
-1558.686013336457
 30
0.0
 10
3935.495250209693
 20
-1558.686013336457
 30
0.0
  0
SPLINE
  5
946
330
1242E
100
AcDbEntity
  8
Level 61
 62
     7
100
AcDbSpline
210
0.0
220
0.0
230
1.0
 70
    11
 71
     3
 72
    26
 73
    22
 74
     0
 42
0.0000000001
 43
0.0000000001
 40
0.0
 40
0.0
 40
0.0
 40
0.0
 40
1.0
 40
1.0
 40
1.0
 40
2.0
 40
2.0
 40
2.0
 40
3.0
 40
3.0
 40
3.0
 40
4.0
 40
4.0
 40
4.0
 40
5.0
 40
5.0
 40
5.0
 40
6.0
 40
6.0
 40
6.0
 40
7.0
 40
7.0
 40
7.0
 40
7.0
 10
3974.417663394412
 20
-1687.673385537283
 30
0.0
 10
3974.417663394412
 20
-1687.673385537283
 30
0.0
 10
3993.117572786439
 20
-1687.673385537283
 30
0.0
 10
3993.117572786439
 20
-1687.673385537283
 30
0.0
 10
4007.363456029398
 20
-1687.673385537283
 30
0.0
 10
4016.262757785
 20
-1684.173168524269
 30
0.0
 10
4019.83297913826
 20
-1677.177109769509
 30
0.0
 10
4023.385699406466
 20
-1670.181051014746
 30
0.0
 10
4025.170810083106
 20
-1658.415946579753
 30
0.0
 10
4025.170810083106
 20
-1641.877421193264
 30
0.0
 10
4025.170810083106
 20
-1625.601412082749
 30
0.0
 10
4023.516957544463
 20
-1613.766303307496
 30
0.0
 10
4020.218003009701
 20
-1606.385220681304
 30
0.0
 10
4016.901547389862
 20
-1599.008513326376
 30
0.0
 10
4008.387269505714
 20
-1595.320159648913
 30
0.0
 10
3994.640167187088
 20
-1595.320159648913
 30
0.0
 10
3994.640167187088
 20
-1595.320159648913
 30
0.0
 10
3974.417663394412
 20
-1595.320159648913
 30
0.0
 10
3974.417663394412
 20
-1595.320159648913
 30
0.0
 10
3974.417663394412
 20
-1595.320159648913
 30
0.0
 10
3974.417663394412
 20
-1687.673385537283
 30
0.0
 10
3974.417663394412
 20
-1687.673385537283
 30
0.0
  0
HATCH
  5
949
330
1242E
100
AcDbEntity
  8
Level 61
 62
     7
100
AcDbHatch
 10
0.0
 20
0.0
 30
0.0
210
0.0
220
0.0
230
-1.0
  2
SOLID
 70
     1
 71
     0
 91
        2
 92
        1
 93
        6
 72
     1
 10
-3935.495250209693
 20
-1830.394734242923
 11
-3935.495250209693
 21
-1558.686013336457
 72
     1
 10
-3935.495250209693
 20
-1558.686013336457
 11
-3993.878869986762
 21
-1558.686013336457
 72
     4
 94
        3
 73
     0
 74
     0
 95
       29
 96
       25
 40
0.0
 40
0.0
 40
0.0
 40
0.0
 40
0.125
 40
0.125
 40
0.125
 40
0.25
 40
0.25
 40
0.25
 40
0.375
 40
0.375
 40
0.375
 40
0.5
 40
0.5
 40
0.5
 40
0.625
 40
0.625
 40
0.625
 40
0.7500000000000001
 40
0.7500000000000001
 40
0.7500000000000001
 40
0.8750000000000001
 40
0.8750000000000001
 40
0.8750000000000001
 40
1.0
 40
1.0
 40
1.0
 40
1.0
 10
-3993.878869986762
 20
-1558.686013336457
 10
-4005.070813885875
 20
-1558.686013336457
 10
-4014.617655788872
 20
-1560.151729210656
 10
-4022.501894610687
 20
-1563.074410416523
 10
-4030.386133432505
 20
-1566.001466893657
 10
-4037.640333191968
 20
-1570.893020169344
 10
-4044.246992804026
 20
-1577.766571328649
 10
-4050.871153501164
 20
-1584.635747216689
 10
-4055.447687245676
 20
-1592.843756112207
 10
-4057.994095122649
 20
-1602.381847472669
 10
-4060.540502999622
 20
-1611.91993883313
 10
-4061.809331666835
 20
-1624.958247206609
 10
-4061.809331666835
 20
-1641.496772593098
 10
-4061.809331666835
 20
-1654.727592902291
 10
-4061.100537721704
 20
-1665.28949773906
 10
-4059.70920145902
 20
-1673.169361289607
 10
-4058.309114653817
 20
-1681.057975382688
 10
-4055.062663374247
 20
-1689.139101411482
 10
-4049.978598162845
 20
-1697.399613562196
 10
-4044.885782408914
 20
-1705.673251526707
 10
-4037.82409458515
 20
-1712.227407883577
 10
-4028.802285234113
 20
-1717.053332090268
 10
-4019.762974798003
 20
-1721.892382110759
 10
-4008.247260825185
 20
-1724.303156578473
 10
-3994.272644400724
 20
-1724.303156578473
 72
     1
 10
-3994.272644400724
 20
-1724.303156578473
 11
-3974.417663394412
 21
-1724.303156578473
 72
     1
 10
-3974.417663394412
 20
-1724.303156578473
 11
-3974.417663394412
 21
-1830.394734242923
 72
     1
 10
-3974.417663394412
 20
-1830.394734242923
 11
-3935.495250209693
 21
-1830.394734242923
 97
        0
 92
       16
 93
        4
 72
     1
 10
-3974.417663394412
 20
-1595.320159648913
 11
-3974.417663394412
 21
-1687.673385537283
 72
     1
 10
-3974.417663394412
 20
-1687.673385537283
 11
-3993.117572786439
 21
-1687.673385537283
 72
     4
 94
        3
 73
     0
 74
     0
 95
       17
 96
       13
 40
0.0
 40
0.0
 40
0.0
 40
0.0
 40
0.25
 40
0.25
 40
0.25
 40
0.5
 40
0.5
 40
0.5
 40
0.75
 40
0.75
 40
0.75
 40
1.0
 40
1.0
 40
1.0
 40
1.0
 10
-3993.117572786439
 20
-1687.673385537283
 10
-4007.363456029398
 20
-1687.673385537283
 10
-4016.262757785
 20
-1684.173168524269
 10
-4019.83297913826
 20
-1677.177109769509
 10
-4023.385699406466
 20
-1670.181051014746
 10
-4025.170810083106
 20
-1658.415946579753
 10
-4025.170810083106
 20
-1641.877421193264
 10
-4025.170810083106
 20
-1625.601412082749
 10
-4023.516957544463
 20
-1613.766303307496
 10
-4020.218003009701
 20
-1606.385220681304
 10
-4016.901547389862
 20
-1599.008513326376
 10
-4008.387269505714
 20
-1595.320159648913
 10
-3994.640167187088
 20
-1595.320159648913
 72
     1
 10
-3994.640167187088
 20
-1595.320159648913
 11
-3974.417663394412
 21
-1595.320159648913
 97
        0
 75
     0
 76
     1
 98
        0
  0
ENDBLK
  5
134F0
330
1242E
100
AcDbEntity
  8
0
100
AcDbBlockEnd
  0
BLOCK
  5
134F1
330
12431
100
AcDbEntity
  8
0
100
AcDbBlockBegin
  2
block 6
 70
     0
 10
0.0
 20
0.0
 30
0.0
  3
block 6
  1

  0
SPLINE
  5
956
330
12431
100
AcDbEntity
  8
Level 61
 62
     7
100
AcDbSpline
210
0.0
220
0.0
230
1.0
 70
    11
 71
     3
 72
    44
 73
    40
 74
     0
 42
0.0000000001
 43
0.0000000001
 40
0.0
 40
0.0
 40
0.0
 40
0.0
 40
1.0
 40
1.0
 40
1.0
 40
2.0
 40
2.0
 40
2.0
 40
3.0
 40
3.0
 40
3.0
 40
4.0
 40
4.0
 40
4.0
 40
5.0
 40
5.0
 40
5.0
 40
6.0
 40
6.0
 40
6.0
 40
7.0
 40
7.0
 40
7.0
 40
8.0
 40
8.0
 40
8.0
 40
9.0
 40
9.0
 40
9.0
 40
10.0
 40
10.0
 40
10.0
 40
11.0
 40
11.0
 40
11.0
 40
12.0
 40
12.0
 40
12.0
 40
13.0
 40
13.0
 40
13.0
 40
13.0
 10
2517.819854513771
 20
-1920.350311477379
 30
0.0
 10
2517.819854513771
 20
-1920.350311477379
 30
0.0
 10
2576.20784956211
 20
-1920.350311477379
 30
0.0
 10
2576.20784956211
 20
-1920.350311477379
 30
0.0
 10
2587.395418189954
 20
-1920.350311477379
 30
0.0
 10
2596.942260092947
 20
-1921.829153165378
 30
0.0
 10
2604.826498914765
 20
-1924.74308382871
 30
0.0
 10
2612.706362465309
 20
-1927.67451557711
 30
0.0
 10
2619.964937496043
 20
-1932.574819395329
 30
0.0
 10
2626.575972379374
 20
-1939.443995283369
 30
0.0
 10
2633.195757805239
 20
-1946.304420628876
 30
0.0
 10
2637.772291549751
 20
-1954.512429524393
 30
0.0
 10
2640.31432415545
 20
-1964.050520884856
 30
0.0
 10
2642.860732032423
 20
-1973.588612245319
 30
0.0
 10
2644.133935970905
 20
-1986.626920618796
 30
0.0
 10
2644.133935970905
 20
-2003.165446005284
 30
0.0
 10
2644.133935970905
 20
-2016.396266314478
 30
0.0
 10
2643.429517297042
 20
-2026.958171151247
 30
0.0
 10
2642.029430491828
 20
-2034.842409973059
 30
0.0
 10
2640.633718957888
 20
-2042.735399337407
 30
0.0
 10
2637.387267678321
 20
-2050.812150094936
 30
0.0
 10
2632.298827195649
 20
-2059.072662245649
 30
0.0
 10
2627.210386712985
 20
-2067.341924938894
 30
0.0
 10
2620.148698889232
 20
-2073.896081295763
 30
0.0
 10
2611.126889538187
 20
-2078.726380773721
 30
0.0
 10
2602.087579102074
 20
-2083.565430794214
 30
0.0
 10
2590.571865129259
 20
-2085.980580533194
 30
0.0
 10
2576.592873433539
 20
-2085.980580533194
 30
0.0
 10
2576.592873433539
 20
-2085.980580533194
 30
0.0
 10
2556.742267698486
 20
-2085.980580533194
 30
0.0
 10
2556.742267698486
 20
-2085.980580533194
 30
0.0
 10
2556.742267698486
 20
-2085.980580533194
 30
0.0
 10
2556.742267698486
 20
-2192.06340765511
 30
0.0
 10
2556.742267698486
 20
-2192.06340765511
 30
0.0
 10
2556.742267698486
 20
-2192.06340765511
 30
0.0
 10
2517.819854513771
 20
-2192.06340765511
 30
0.0
 10
2517.819854513771
 20
-2192.06340765511
 30
0.0
 10
2517.819854513771
 20
-2192.06340765511
 30
0.0
 10
2517.819854513771
 20
-1920.350311477379
 30
0.0
 10
2517.819854513771
 20
-1920.350311477379
 30
0.0
  0
SPLINE
  5
959
330
12431
100
AcDbEntity
  8
Level 61
 62
     7
100
AcDbSpline
210
0.0
220
0.0
230
1.0
 70
    11
 71
     3
 72
    26
 73
    22
 74
     0
 42
0.0000000001
 43
0.0000000001
 40
0.0
 40
0.0
 40
0.0
 40
0.0
 40
1.0
 40
1.0
 40
1.0
 40
2.0
 40
2.0
 40
2.0
 40
3.0
 40
3.0
 40
3.0
 40
4.0
 40
4.0
 40
4.0
 40
5.0
 40
5.0
 40
5.0
 40
6.0
 40
6.0
 40
6.0
 40
7.0
 40
7.0
 40
7.0
 40
7.0
 10
2556.742267698486
 20
-2049.342058949471
 30
0.0
 10
2556.742267698486
 20
-2049.342058949471
 30
0.0
 10
2575.446552361776
 20
-2049.342058949471
 30
0.0
 10
2575.446552361776
 20
-2049.342058949471
 30
0.0
 10
2589.688060333476
 20
-2049.342058949471
 30
0.0
 10
2598.59173736033
 20
-2045.841841936458
 30
0.0
 10
2602.157583442335
 20
-2038.850158452962
 30
0.0
 10
2605.710303710548
 20
-2031.849724426934
 30
0.0
 10
2607.495414387191
 20
-2020.088995263207
 30
0.0
 10
2607.495414387191
 20
-2003.550469876718
 30
0.0
 10
2607.495414387191
 20
-1987.265710223671
 30
0.0
 10
2605.837186577268
 20
-1975.443727262216
 30
0.0
 10
2602.542607313768
 20
-1968.058269364757
 30
0.0
 10
2599.226151693936
 20
-1960.68156200983
 30
0.0
 10
2590.711873809778
 20
-1956.988833061101
 30
0.0
 10
2576.969146762436
 20
-1956.988833061101
 30
0.0
 10
2576.969146762436
 20
-1956.988833061101
 30
0.0
 10
2556.742267698486
 20
-1956.988833061101
 30
0.0
 10
2556.742267698486
 20
-1956.988833061101
 30
0.0
 10
2556.742267698486
 20
-1956.988833061101
 30
0.0
 10
2556.742267698486
 20
-2049.342058949471
 30
0.0
 10
2556.742267698486
 20
-2049.342058949471
 30
0.0
  0
HATCH
  5
95C
330
12431
100
AcDbEntity
  8
Level 61
 62
     7
100
AcDbHatch
 10
0.0
 20
0.0
 30
0.0
210
0.0
220
0.0
230
-1.0
  2
SOLID
 70
     1
 71
     0
 91
        2
 92
        1
 93
        6
 72
     1
 10
-2517.819854513771
 20
-2192.06340765511
 11
-2517.819854513771
 21
-1920.350311477379
 72
     1
 10
-2517.819854513771
 20
-1920.350311477379
 11
-2576.20784956211
 21
-1920.350311477379
 72
     4
 94
        3
 73
     0
 74
     0
 95
       29
 96
       25
 40
0.0
 40
0.0
 40
0.0
 40
0.0
 40
0.125
 40
0.125
 40
0.125
 40
0.25
 40
0.25
 40
0.25
 40
0.375
 40
0.375
 40
0.375
 40
0.5
 40
0.5
 40
0.5
 40
0.625
 40
0.625
 40
0.625
 40
0.7500000000000001
 40
0.7500000000000001
 40
0.7500000000000001
 40
0.8750000000000001
 40
0.8750000000000001
 40
0.8750000000000001
 40
1.0
 40
1.0
 40
1.0
 40
1.0
 10
-2576.20784956211
 20
-1920.350311477379
 10
-2587.395418189954
 20
-1920.350311477379
 10
-2596.942260092947
 20
-1921.829153165378
 10
-2604.826498914765
 20
-1924.74308382871
 10
-2612.706362465309
 20
-1927.67451557711
 10
-2619.964937496043
 20
-1932.574819395329
 10
-2626.575972379374
 20
-1939.443995283369
 10
-2633.195757805239
 20
-1946.304420628876
 10
-2637.772291549751
 20
-1954.512429524393
 10
-2640.31432415545
 20
-1964.050520884856
 10
-2642.860732032423
 20
-1973.588612245319
 10
-2644.133935970905
 20
-1986.626920618796
 10
-2644.133935970905
 20
-2003.165446005284
 10
-2644.133935970905
 20
-2016.396266314478
 10
-2643.429517297042
 20
-2026.958171151247
 10
-2642.029430491828
 20
-2034.842409973059
 10
-2640.633718957888
 20
-2042.735399337407
 10
-2637.387267678321
 20
-2050.812150094936
 10
-2632.298827195649
 20
-2059.072662245649
 10
-2627.210386712985
 20
-2067.341924938894
 10
-2620.148698889232
 20
-2073.896081295763
 10
-2611.126889538187
 20
-2078.726380773721
 10
-2602.087579102074
 20
-2083.565430794214
 10
-2590.571865129259
 20
-2085.980580533194
 10
-2576.592873433539
 20
-2085.980580533194
 72
     1
 10
-2576.592873433539
 20
-2085.980580533194
 11
-2556.742267698486
 21
-2085.980580533194
 72
     1
 10
-2556.742267698486
 20
-2085.980580533194
 11
-2556.742267698486
 21
-2192.06340765511
 72
     1
 10
-2556.742267698486
 20
-2192.06340765511
 11
-2517.819854513771
 21
-2192.06340765511
 97
        0
 92
       16
 93
        4
 72
     1
 10
-2556.742267698486
 20
-1956.988833061101
 11
-2556.742267698486
 21
-2049.342058949471
 72
     1
 10
-2556.742267698486
 20
-2049.342058949471
 11
-2575.446552361776
 21
-2049.342058949471
 72
     4
 94
        3
 73
     0
 74
     0
 95
       17
 96
       13
 40
0.0
 40
0.0
 40
0.0
 40
0.0
 40
0.25
 40
0.25
 40
0.25
 40
0.5
 40
0.5
 40
0.5
 40
0.75
 40
0.75
 40
0.75
 40
1.0
 40
1.0
 40
1.0
 40
1.0
 10
-2575.446552361776
 20
-2049.342058949471
 10
-2589.688060333476
 20
-2049.342058949471
 10
-2598.59173736033
 20
-2045.841841936458
 10
-2602.157583442335
 20
-2038.850158452962
 10
-2605.710303710548
 20
-2031.849724426934
 10
-2607.495414387191
 20
-2020.088995263207
 10
-2607.495414387191
 20
-2003.550469876718
 10
-2607.495414387191
 20
-1987.265710223671
 10
-2605.837186577268
 20
-1975.443727262216
 10
-2602.542607313768
 20
-1968.058269364757
 10
-2599.226151693936
 20
-1960.68156200983
 10
-2590.711873809778
 20
-1956.988833061101
 10
-2576.969146762436
 20
-1956.988833061101
 72
     1
 10
-2576.969146762436
 20
-1956.988833061101
 11
-2556.742267698486
 21
-1956.988833061101
 97
        0
 75
     0
 76
     1
 98
        0
  0
SPLINE
  5
968
330
12431
100
AcDbEntity
  8
Level 61
 62
     7
100
AcDbSpline
210
0.0
220
0.0
230
1.0
 70
    11
 71
     3
 72
   101
 73
    97
 74
     0
 42
0.0000000001
 43
0.0000000001
 40
0.0
 40
0.0
 40
0.0
 40
0.0
 40
1.0
 40
1.0
 40
1.0
 40
2.0
 40
2.0
 40
2.0
 40
3.0
 40
3.0
 40
3.0
 40
4.0
 40
4.0
 40
4.0
 40
5.0
 40
5.0
 40
5.0
 40
6.0
 40
6.0
 40
6.0
 40
7.0
 40
7.0
 40
7.0
 40
8.0
 40
8.0
 40
8.0
 40
9.0
 40
9.0
 40
9.0
 40
10.0
 40
10.0
 40
10.0
 40
11.0
 40
11.0
 40
11.0
 40
12.0
 40
12.0
 40
12.0
 40
13.0
 40
13.0
 40
13.0
 40
14.0
 40
14.0
 40
14.0
 40
15.0
 40
15.0
 40
15.0
 40
16.0
 40
16.0
 40
16.0
 40
17.0
 40
17.0
 40
17.0
 40
18.0
 40
18.0
 40
18.0
 40
19.0
 40
19.0
 40
19.0
 40
20.0
 40
20.0
 40
20.0
 40
21.0
 40
21.0
 40
21.0
 40
22.0
 40
22.0
 40
22.0
 40
23.0
 40
23.0
 40
23.0
 40
24.0
 40
24.0
 40
24.0
 40
25.0
 40
25.0
 40
25.0
 40
26.0
 40
26.0
 40
26.0
 40
27.0
 40
27.0
 40
27.0
 40
28.0
 40
28.0
 40
28.0
 40
29.0
 40
29.0
 40
29.0
 40
30.0
 40
30.0
 40
30.0
 40
31.0
 40
31.0
 40
31.0
 40
32.0
 40
32.0
 40
32.0
 40
32.0
 10
2797.548447651298
 20
-1998.588912260769
 30
0.0
 10
2797.548447651298
 20
-1998.588912260769
 30
0.0
 10
2758.626034466586
 20
-1998.588912260769
 30
0.0
 10
2758.626034466586
 20
-1998.588912260769
 30
0.0
 10
2758.626034466586
 20
-1998.588912260769
 30
0.0
 10
2758.626034466586
 20
-1989.812118100637
 30
0.0
 10
2758.626034466586
 20
-1989.812118100637
 30
0.0
 10
2758.626034466586
 20
-1979.889002868744
 30
0.0
 10
2756.464650461046
 20
-1971.934759706669
 30
0.0
 10
2752.133131907449
 20
-1965.95813915695
 30
0.0
 10
2747.810363896369
 20
-1959.990269149759
 30
0.0
 10
2740.809929870342
 20
-1956.988833061101
 30
0.0
 10
2731.149330914428
 20
-1956.988833061101
 30
0.0
 10
2721.471230873445
 20
-1956.988833061101
 30
0.0
 10
2714.672059325669
 20
-1960.23528434067
 30
0.0
 10
2710.725564643497
 20
-1966.719436357279
 30
0.0
 10
2706.787820503851
 20
-1973.203588373887
 30
0.0
 10
2704.8101978915
 20
-1981.665363002847
 30
0.0
 10
2704.8101978915
 20
-1992.104760244162
 30
0.0
 10
2704.8101978915
 20
-2003.305454685806
 30
0.0
 10
2706.087777101249
 20
-2011.180942965087
 30
0.0
 10
2708.625434435686
 20
-2015.757476709604
 30
0.0
 10
2711.171842312651
 20
-2020.334010454119
 30
0.0
 10
2717.279721000356
 20
-2024.543021412267
 30
0.0
 10
2726.949070498813
 20
-2028.358257956453
 30
0.0
 10
2726.949070498813
 20
-2028.358257956453
 30
0.0
 10
2756.709665651961
 20
-2040.180240917908
 30
0.0
 10
2756.709665651961
 20
-2040.180240917908
 30
0.0
 10
2772.98567476248
 20
-2046.288119605617
 30
0.0
 10
2783.871349672947
 20
-2054.942406170292
 30
0.0
 10
2789.340438755786
 20
-2066.125599526871
 30
0.0
 10
2794.818278381154
 20
-2077.326293968516
 30
0.0
 10
2797.548447651298
 20
-2093.488546026108
 30
0.0
 10
2797.548447651298
 20
-2114.603605157115
 30
0.0
 10
2797.548447651298
 20
-2139.280135098862
 30
0.0
 10
2792.324373759377
 20
-2158.741341691217
 30
0.0
 10
2781.902477603129
 20
-2172.987224934184
 30
0.0
 10
2771.463080361817
 20
-2187.241858719683
 30
0.0
 10
2754.294515912985
 20
-2194.356049798635
 30
0.0
 10
2730.388033714095
 20
-2194.356049798635
 30
0.0
 10
2711.556866184081
 20
-2194.356049798635
 30
0.0
 10
2695.779637997923
 20
-2188.248171110925
 30
0.0
 10
2683.065099698153
 20
-2176.041164278039
 30
0.0
 10
2670.346186127114
 20
-2163.816656360087
 30
0.0
 10
2663.984541705959
 20
-2148.433202587892
 30
0.0
 10
2663.984541705959
 20
-2129.864551333853
 30
0.0
 10
2663.984541705959
 20
-2129.864551333853
 30
0.0
 10
2663.984541705959
 20
-2115.364902357443
 30
0.0
 10
2663.984541705959
 20
-2115.364902357443
 30
0.0
 10
2663.984541705959
 20
-2115.364902357443
 30
0.0
 10
2702.902579619407
 20
-2115.364902357443
 30
0.0
 10
2702.902579619407
 20
-2115.364902357443
 30
0.0
 10
2702.902579619407
 20
-2115.364902357443
 30
0.0
 10
2702.902579619407
 20
-2127.57190919033
 30
0.0
 10
2702.902579619407
 20
-2127.57190919033
 30
0.0
 10
2702.902579619407
 20
-2135.464898554675
 30
0.0
 10
2705.133967965205
 20
-2142.07155816674
 30
0.0
 10
2709.579243571723
 20
-2147.418139654117
 30
0.0
 10
2714.033269720796
 20
-2152.755970598964
 30
0.0
 10
2720.972449949088
 20
-2155.424886071387
 30
0.0
 10
2730.388033714095
 20
-2155.424886071387
 30
0.0
 10
2742.595040546981
 20
-2155.424886071387
 30
0.0
 10
2750.356771773346
 20
-2152.318443472337
 30
0.0
 10
2753.655726308105
 20
-2146.07930664664
 30
0.0
 10
2756.9634313854
 20
-2139.848920363476
 30
0.0
 10
2758.626034466586
 20
-2129.479527462423
 30
0.0
 10
2758.626034466586
 20
-2114.97112794348
 30
0.0
 10
2758.626034466586
 20
-2100.480229509602
 30
0.0
 10
2757.348455256841
 20
-2091.003391946868
 30
0.0
 10
2754.802047379868
 20
-2086.549365797807
 30
0.0
 10
2752.264390045435
 20
-2082.095339648748
 30
0.0
 10
2746.025253219734
 20
-2077.833825435402
 30
0.0
 10
2736.110888530377
 20
-2073.764823157775
 30
0.0
 10
2736.110888530377
 20
-2073.764823157775
 30
0.0
 10
2708.257911649322
 20
-2062.310362982688
 30
0.0
 10
2708.257911649322
 20
-2062.310362982688
 30
0.0
 10
2692.218167187184
 20
-2055.703703370623
 30
0.0
 10
2681.15748142606
 20
-2046.926909210491
 30
0.0
 10
2675.045227467079
 20
-2035.988731044822
 30
0.0
 10
2668.946099321907
 20
-2025.050552879156
 30
0.0
 10
2665.892159978052
 20
-2010.550903902745
 30
0.0
 10
2665.892159978052
 20
-1992.481033573061
 30
0.0
 10
2665.892159978052
 20
-1970.604677241725
 30
0.0
 10
2671.615014794326
 20
-1952.727318847757
 30
0.0
 10
2683.065099698153
 20
-1938.86645947622
 30
0.0
 10
2694.510809330706
 20
-1924.996849562154
 30
0.0
 10
2711.049334717194
 20
-1918.066419876385
 30
0.0
 10
2732.671925315088
 20
-1918.066419876385
 30
0.0
 10
2751.240576569126
 20
-1918.066419876385
 30
0.0
 10
2766.694034681579
 20
-1924.358059957278
 30
0.0
 10
2779.041050194992
 20
-1936.958841204129
 30
0.0
 10
2791.370564623332
 20
-1949.550871908446
 30
0.0
 10
2797.548447651298
 20
-1963.735501353685
 30
0.0
 10
2797.548447651298
 20
-1979.512729539845
 30
0.0
 10
2797.548447651298
 20
-1979.512729539845
 30
0.0
 10
2797.548447651298
 20
-1998.588912260769
 30
0.0
 10
2797.548447651298
 20
-1998.588912260769
 30
0.0
  0
HATCH
  5
96B
330
12431
100
AcDbEntity
  8
Level 61
 62
     7
100
AcDbHatch
 10
0.0
 20
0.0
 30
0.0
210
0.0
220
0.0
230
-1.0
  2
SOLID
 70
     1
 71
     0
 91
        1
 92
        0
 93
       12
 72
     1
 10
-2797.548447651298
 20
-1998.588912260769
 11
-2758.626034466586
 21
-1998.588912260769
 72
     1
 10
-2758.626034466586
 20
-1998.588912260769
 11
-2758.626034466586
 21
-1989.812118100637
 72
     4
 94
        3
 73
     0
 74
     0
 95
       23
 96
       19
 40
0.0
 40
0.0
 40
0.0
 40
0.0
 40
0.1666666666666667
 40
0.1666666666666667
 40
0.1666666666666667
 40
0.3333333333333333
 40
0.3333333333333333
 40
0.3333333333333333
 40
0.5
 40
0.5
 40
0.5
 40
0.6666666666666666
 40
0.6666666666666666
 40
0.6666666666666666
 40
0.8333333333333334
 40
0.8333333333333334
 40
0.8333333333333334
 40
1.0
 40
1.0
 40
1.0
 40
1.0
 10
-2758.626034466586
 20
-1989.812118100637
 10
-2758.626034466586
 20
-1979.889002868744
 10
-2756.464650461046
 20
-1971.934759706669
 10
-2752.133131907449
 20
-1965.95813915695
 10
-2747.810363896369
 20
-1959.990269149759
 10
-2740.809929870342
 20
-1956.988833061101
 10
-2731.149330914428
 20
-1956.988833061101
 10
-2721.471230873445
 20
-1956.988833061101
 10
-2714.672059325669
 20
-1960.23528434067
 10
-2710.725564643497
 20
-1966.719436357279
 10
-2706.787820503851
 20
-1973.203588373887
 10
-2704.8101978915
 20
-1981.665363002847
 10
-2704.8101978915
 20
-1992.104760244162
 10
-2704.8101978915
 20
-2003.305454685806
 10
-2706.087777101249
 20
-2011.180942965087
 10
-2708.625434435686
 20
-2015.757476709604
 10
-2711.171842312651
 20
-2020.334010454119
 10
-2717.279721000356
 20
-2024.543021412267
 10
-2726.949070498813
 20
-2028.358257956453
 72
     1
 10
-2726.949070498813
 20
-2028.358257956453
 11
-2756.709665651961
 21
-2040.180240917908
 72
     4
 94
        3
 73
     0
 74
     0
 95
       23
 96
       19
 40
0.0
 40
0.0
 40
0.0
 40
0.0
 40
0.1666666666666667
 40
0.1666666666666667
 40
0.1666666666666667
 40
0.3333333333333333
 40
0.3333333333333333
 40
0.3333333333333333
 40
0.5
 40
0.5
 40
0.5
 40
0.6666666666666666
 40
0.6666666666666666
 40
0.6666666666666666
 40
0.8333333333333334
 40
0.8333333333333334
 40
0.8333333333333334
 40
1.0
 40
1.0
 40
1.0
 40
1.0
 10
-2756.709665651961
 20
-2040.180240917908
 10
-2772.98567476248
 20
-2046.288119605617
 10
-2783.871349672947
 20
-2054.942406170292
 10
-2789.340438755786
 20
-2066.125599526871
 10
-2794.818278381154
 20
-2077.326293968516
 10
-2797.548447651298
 20
-2093.488546026108
 10
-2797.548447651298
 20
-2114.603605157115
 10
-2797.548447651298
 20
-2139.280135098862
 10
-2792.324373759377
 20
-2158.741341691217
 10
-2781.902477603129
 20
-2172.987224934184
 10
-2771.463080361817
 20
-2187.241858719683
 10
-2754.294515912985
 20
-2194.356049798635
 10
-2730.388033714095
 20
-2194.356049798635
 10
-2711.556866184081
 20
-2194.356049798635
 10
-2695.779637997923
 20
-2188.248171110925
 10
-2683.065099698153
 20
-2176.041164278039
 10
-2670.346186127114
 20
-2163.816656360087
 10
-2663.984541705959
 20
-2148.433202587892
 10
-2663.984541705959
 20
-2129.864551333853
 72
     1
 10
-2663.984541705959
 20
-2129.864551333853
 11
-2663.984541705959
 21
-2115.364902357443
 72
     1
 10
-2663.984541705959
 20
-2115.364902357443
 11
-2702.902579619407
 21
-2115.364902357443
 72
     1
 10
-2702.902579619407
 20
-2115.364902357443
 11
-2702.902579619407
 21
-2127.57190919033
 72
     4
 94
        3
 73
     0
 74
     0
 95
       23
 96
       19
 40
0.0
 40
0.0
 40
0.0
 40
0.0
 40
0.1666666666666667
 40
0.1666666666666667
 40
0.1666666666666667
 40
0.3333333333333333
 40
0.3333333333333333
 40
0.3333333333333333
 40
0.5
 40
0.5
 40
0.5
 40
0.6666666666666666
 40
0.6666666666666666
 40
0.6666666666666666
 40
0.8333333333333334
 40
0.8333333333333334
 40
0.8333333333333334
 40
1.0
 40
1.0
 40
1.0
 40
1.0
 10
-2702.902579619407
 20
-2127.57190919033
 10
-2702.902579619407
 20
-2135.464898554675
 10
-2705.133967965205
 20
-2142.07155816674
 10
-2709.579243571723
 20
-2147.418139654117
 10
-2714.033269720796
 20
-2152.755970598964
 10
-2720.972449949088
 20
-2155.424886071387
 10
-2730.388033714095
 20
-2155.424886071387
 10
-2742.595040546981
 20
-2155.424886071387
 10
-2750.356771773346
 20
-2152.318443472337
 10
-2753.655726308105
 20
-2146.07930664664
 10
-2756.9634313854
 20
-2139.848920363476
 10
-2758.626034466586
 20
-2129.479527462423
 10
-2758.626034466586
 20
-2114.97112794348
 10
-2758.626034466586
 20
-2100.480229509602
 10
-2757.348455256841
 20
-2091.003391946868
 10
-2754.802047379868
 20
-2086.549365797807
 10
-2752.264390045435
 20
-2082.095339648748
 10
-2746.025253219734
 20
-2077.833825435402
 10
-2736.110888530377
 20
-2073.764823157775
 72
     1
 10
-2736.110888530377
 20
-2073.764823157775
 11
-2708.257911649322
 21
-2062.310362982688
 72
     4
 94
        3
 73
     0
 74
     0
 95
       23
 96
       19
 40
0.0
 40
0.0
 40
0.0
 40
0.0
 40
0.1666666666666667
 40
0.1666666666666667
 40
0.1666666666666667
 40
0.3333333333333333
 40
0.3333333333333333
 40
0.3333333333333333
 40
0.5
 40
0.5
 40
0.5
 40
0.6666666666666666
 40
0.6666666666666666
 40
0.6666666666666666
 40
0.8333333333333334
 40
0.8333333333333334
 40
0.8333333333333334
 40
1.0
 40
1.0
 40
1.0
 40
1.0
 10
-2708.257911649322
 20
-2062.310362982688
 10
-2692.218167187184
 20
-2055.703703370623
 10
-2681.15748142606
 20
-2046.926909210491
 10
-2675.045227467079
 20
-2035.988731044822
 10
-2668.946099321907
 20
-2025.050552879156
 10
-2665.892159978052
 20
-2010.550903902745
 10
-2665.892159978052
 20
-1992.481033573061
 10
-2665.892159978052
 20
-1970.604677241725
 10
-2671.615014794326
 20
-1952.727318847757
 10
-2683.065099698153
 20
-1938.86645947622
 10
-2694.510809330706
 20
-1924.996849562154
 10
-2711.049334717194
 20
-1918.066419876385
 10
-2732.671925315088
 20
-1918.066419876385
 10
-2751.240576569126
 20
-1918.066419876385
 10
-2766.694034681579
 20
-1924.358059957278
 10
-2779.041050194992
 20
-1936.958841204129
 10
-2791.370564623332
 20
-1949.550871908446
 10
-2797.548447651298
 20
-1963.735501353685
 10
-2797.548447651298
 20
-1979.512729539845
 72
     1
 10
-2797.548447651298
 20
-1979.512729539845
 11
-2797.548447651298
 21
-1998.588912260769
 97
        0
 75
     0
 76
     1
 98
        0
  0
LWPOLYLINE
  5
970
330
12431
100
AcDbEntity
  8
Level 61
 62
     7
100
AcDbPolyline
 90
       11
 70
   128
 43
0.0
 10
2823.485056
 20
-1920.350311
 10
2861.024883
 20
-1920.306559
 10
2919.881032
 20
-2083.985457
 10
2920.414815
 20
-1920.350311
 10
2959.345979
 20
-1920.350311
 10
2959.345979
 20
-2192.063408
 10
2922.716208
 20
-2192.063408
 10
2863.168766
 20
-2028.734531
 10
2862.407469
 20
-2192.063408
 10
2823.485056
 20
-2192.063408
 10
2823.485056
 20
-1920.350311
  0
HATCH
  5
971
330
12431
100
AcDbEntity
  8
Level 61
 62
     7
100
AcDbHatch
 10
0.0
 20
0.0
 30
0.0
210
0.0
220
0.0
230
-0.9999999999999999
  2
SOLID
 70
     1
 71
     0
 91
        1
 92
        3
 72
     0
 73
     1
 93
       10
 10
-2823.485055717738
 20
-1920.350311477379
 10
-2861.024883182305
 20
-1920.306558764716
 10
-2919.881032256137
 20
-2083.985456835775
 10
-2920.414815350614
 20
-1920.350311477379
 10
-2959.345979077869
 20
-1920.350311477379
 10
-2959.345979077869
 20
-2192.06340765511
 10
-2922.71620803668
 20
-2192.06340765511
 10
-2863.168766102775
 20
-2028.734531285351
 10
-2862.407468902449
 20
-2192.06340765511
 10
-2823.485055717738
 20
-2192.06340765511
 97
        0
 75
     0
 76
     1
 98
        0
  0
ENDBLK
  5
134F2
330
12431
100
AcDbEntity
  8
0
100
AcDbBlockEnd
  0
BLOCK
  5
134F3
330
12428
100
AcDbEntity
  8
0
100
AcDbBlockBegin
  2
block 3
 70
     0
 10
0.0
 20
0.0
 30
0.0
  3
block 3
  1

  0
INSERT
  5
8A7
330
12428
100
AcDbEntity
  8
Level 61
 62
     7
100
AcDbBlockReference
  2
block 4
 10
0.0
 20
0.0
 30
0.0
  0
INSERT
  5
906
330
12428
100
AcDbEntity
  8
Level 61
 62
     7
100
AcDbBlockReference
  2
block 5
 10
0.0
 20
0.0
 30
0.0
  0
INSERT
  5
955
330
12428
100
AcDbEntity
  8
Level 61
 62
     7
100
AcDbBlockReference
  2
block 6
 10
0.0
 20
0.0
 30
0.0
  0
ENDBLK
  5
134F4
330
12428
100
AcDbEntity
  8
0
100
AcDbBlockEnd
  0
BLOCK
  5
134F5
330
12425
100
AcDbEntity
  8
0
100
AcDbBlockBegin
  2
New Logo
 70
     0
 10
0.0
 20
0.0
 30
0.0
  3
New Logo
  1

  0
INSERT
  5
8A6
330
12425
100
AcDbEntity
  8
Level 61
 62
     7
100
AcDbBlockReference
  2
block 3
 10
-47.775674
 20
34.971019
 30
0.0
 41
0.01875
 42
0.01875
 43
0.01875
  0
LWPOLYLINE
  5
97D
330
12425
100
AcDbEntity
  8
Level 61
 62
     7
100
AcDbPolyline
 90
        6
 70
   128
 43
0.0
 10
-23.777093
 20
5.803738
 10
-16.789237
 20
-6.154781
 10
-13.452491
 20
-0.444559
 10
-10.116074
 20
-6.154781
 10
-3.128136
 20
5.803738
 10
-23.777093
 20
5.803738
  0
LWPOLYLINE
  5
97E
330
12425
100
AcDbEntity
  8
Level 61
 62
     7
100
AcDbPolyline
 90
        4
 70
   128
 43
0.0
 10
-13.035255
 20
0.093271
 10
-8.788398
 20
2.95757
 10
-9.343866
 20
0.093271
 10
-13.035255
 20
0.093271
  0
LWPOLYLINE
  5
97F
330
12425
100
AcDbEntity
  8
Level 61
 62
     7
100
AcDbPolyline
 90
        7
 70
   128
 43
0.0
 10
-18.25252
 20
2.761503
 10
-17.736429
 20
0.101474
 10
-17.569075
 20
0.133305
 10
-18.116913
 20
2.95757
 10
-13.869728
 20
0.093271
 10
-19.811702
 20
0.093271
 10
-18.25252
 20
2.761503
  0
LWPOLYLINE
  5
980
330
12425
100
AcDbEntity
  8
Level 61
 62
     7
100
AcDbPolyline
 90
        4
 70
   128
 43
0.0
 10
-10.116074
 20
5.265908
 10
-8.859031
 20
3.114259
 10
-13.008675
 20
0.315425
 10
-10.116074
 20
5.265908
  0
LWPOLYLINE
  5
981
330
12425
100
AcDbEntity
  8
Level 61
 62
     7
100
AcDbPolyline
 90
        4
 70
   128
 43
0.0
 10
-12.327445
 20
2.198241
 10
-15.11586
 20
3.155195
 10
-10.481628
 20
5.357214
 10
-12.327445
 20
2.198241
  0
LWPOLYLINE
  5
982
330
12425
100
AcDbEntity
  8
Level 61
 62
     7
100
AcDbPolyline
 90
        4
 70
   128
 43
0.0
 10
-12.414322
 20
2.049509
 10
-13.452491
 20
0.272684
 10
-15.01192
 20
2.94108
 10
-12.414322
 20
2.049509
  0
LWPOLYLINE
  5
983
330
12425
100
AcDbEntity
  8
Level 61
 62
     7
100
AcDbPolyline
 90
        4
 70
   128
 43
0.0
 10
-13.8968
 20
0.315671
 10
-18.046444
 20
3.114259
 10
-16.789237
 20
5.265908
 10
-13.8968
 20
0.315671
  0
LWPOLYLINE
  5
984
330
12425
100
AcDbEntity
  8
Level 61
 62
     7
100
AcDbPolyline
 90
        4
 70
   128
 43
0.0
 10
-8.652956
 20
2.761749
 10
-7.093281
 20
0.093271
 10
-9.170195
 20
0.093271
 10
-8.652956
 20
2.761749
  0
LWPOLYLINE
  5
985
330
12425
100
AcDbEntity
  8
Level 61
 62
     7
100
AcDbPolyline
 90
        4
 70
   128
 43
0.0
 10
-9.801874
 20
5.445075
 10
-7.287297
 20
5.445075
 10
-6.909191
 20
0.494757
 10
-9.801874
 20
5.445075
  0
LWPOLYLINE
  5
986
330
12425
100
AcDbEntity
  8
Level 61
 62
     7
100
AcDbPolyline
 90
        4
 70
   128
 43
0.0
 10
-15.217995
 20
3.293836
 10
-16.475284
 20
5.445075
 10
-10.690492
 20
5.445075
 10
-15.217995
 20
3.293836
  0
LWPOLYLINE
  5
987
330
12425
100
AcDbEntity
  8
Level 61
 62
     7
100
AcDbPolyline
 90
        4
 70
   128
 43
0.0
 10
-18.729315
 20
2.662895
 10
-19.286834
 20
5.445075
 10
-17.103601
 20
5.445075
 10
-18.729315
 20
2.662895
  0
LWPOLYLINE
  5
988
330
12425
100
AcDbEntity
  8
Level 61
 62
     7
100
AcDbPolyline
 90
        4
 70
   128
 43
0.0
 10
-18.900442
 20
2.649359
 10
-23.045903
 20
5.445075
 10
-19.460751
 20
5.445075
 10
-18.900442
 20
2.649359
  0
LWPOLYLINE
  5
989
330
12425
100
AcDbEntity
  8
Level 61
 62
     7
100
AcDbPolyline
 90
        4
 70
   128
 43
0.0
 10
-18.868941
 20
2.423841
 10
-20.126147
 20
0.272438
 10
-23.018585
 20
5.222675
 10
-18.868941
 20
2.423841
  0
LWPOLYLINE
  5
98A
330
12425
100
AcDbEntity
  8
Level 61
 62
     7
100
AcDbPolyline
 90
        4
 70
   128
 43
0.0
 10
-19.551729
 20
-0.265228
 10
-13.766691
 20
-0.265228
 10
-15.023733
 20
-2.416549
 10
-19.551729
 20
-0.265228
  0
LWPOLYLINE
  5
98B
330
12425
100
AcDbEntity
  8
Level 61
 62
     7
100
AcDbPolyline
 90
        4
 70
   128
 43
0.0
 10
-15.194615
 20
-2.522704
 10
-17.915432
 20
-3.511078
 10
-19.760593
 20
-0.353089
 10
-15.194615
 20
-2.522704
  0
LWPOLYLINE
  5
98C
330
12425
100
AcDbEntity
  8
Level 61
 62
     7
100
AcDbPolyline
 90
        4
 70
   128
 43
0.0
 10
-11.060968
 20
-0.265228
 10
-11.578946
 20
-2.934034
 10
-13.138292
 20
-0.265228
 10
-11.060968
 20
-0.265228
  0
LWPOLYLINE
  5
98D
330
12425
100
AcDbEntity
  8
Level 61
 62
     7
100
AcDbPolyline
 90
        4
 70
   128
 43
0.0
 10
-10.887543
 20
-0.265228
 10
-7.196318
 20
-0.265228
 10
-11.443175
 20
-3.129937
 10
-10.887543
 20
-0.265228
  0
LWPOLYLINE
  5
98E
330
12425
100
AcDbEntity
  8
Level 61
 62
     7
100
AcDbPolyline
 90
        4
 70
   128
 43
0.0
 10
-7.11461
 20
5.426699
 10
-4.882073
 20
3.518944
 10
-6.727891
 20
0.360299
 10
-7.11461
 20
5.426699
  0
LWPOLYLINE
  5
98F
330
12425
100
AcDbEntity
  8
Level 61
 62
     7
100
AcDbPolyline
 90
        4
 70
   128
 43
0.0
 10
-6.875146
 20
5.445075
 10
-3.756617
 20
5.445075
 10
-4.795033
 20
3.667676
 10
-6.875146
 20
5.445075
  0
LWPOLYLINE
  5
990
330
12425
100
AcDbEntity
  8
Level 61
 62
     7
100
AcDbPolyline
 90
        4
 70
   128
 43
0.0
 10
-17.828638
 20
-3.659399
 10
-15.189775
 20
-2.700723
 10
-16.789237
 20
-5.438111
 10
-17.828638
 20
-3.659399
  0
LWPOLYLINE
  5
991
330
12425
100
AcDbEntity
  8
Level 61
 62
     7
100
AcDbPolyline
 90
        4
 70
   128
 43
0.0
 10
-11.372788
 20
-3.286954
 10
-7.22339
 20
-0.488039
 10
-10.116074
 20
-5.438111
 10
-11.372788
 20
-3.286954
  0
HATCH
  5
992
330
12425
100
AcDbEntity
  8
Level 61
 62
     7
100
AcDbHatch
 10
0.0
 20
0.0
 30
0.0
210
0.0
220
0.0
230
1.0
  2
SOLID
 70
     1
 71
     0
 91
       21
 92
        3
 72
     0
 73
     1
 93
        5
 10
-10.11607365145744
 20
-6.15478058067076
 10
-3.12813649398413
 20
5.80373818973645
 10
-23.77709250790548
 20
5.80373818973645
 10
-16.78923738676832
 20
-6.15478058067076
 10
-13.45249144644032
 20
-0.4445593601744946
 97
        0
 92
       18
 72
     0
 73
     1
 93
        3
 10
-8.788397585708651
 20
2.957569540138699
 10
-9.343865618406653
 20
0.0932708602314349
 10
-13.03525464031094
 20
0.0932708602314349
 97
        0
 92
       18
 72
     0
 73
     1
 93
        6
 10
-13.86972825256987
 20
0.0932708602314349
 10
-19.81170212295115
 20
0.0932708602314349
 10
-18.25251951632606
 20
2.761502696519081
 10
-17.73642892502437
 20
0.1014744938556618
 10
-17.56907479908966
 20
0.1333045923177423
 10
-18.11691345251711
 20
2.957569540138699
 97
        0
 92
       18
 72
     0
 73
     1
 93
        3
 10
-8.859030871213349
 20
3.114258942361914
 10
-13.00867486736854
 20
0.3154252587761377
 10
-10.11607365145744
 20
5.265907969330478
 97
        0
 92
       18
 72
     0
 73
     1
 93
        3
 10
-15.11586020009355
 20
3.155195074146924
 10
-10.48162756575408
 20
5.357214411568414
 10
-12.32744513121065
 20
2.198241211878013
 97
        0
 92
       18
 72
     0
 73
     1
 93
        3
 10
-13.45249144644032
 20
0.2726843275937867
 10
-15.01192016207426
 20
2.941080236553958
 10
-12.41432161129143
 20
2.049509334270347
 97
        0
 92
       18
 72
     0
 73
     1
 93
        3
 10
-18.04644423968477
 20
3.114258942361914
 10
-16.78923738676832
 20
5.265907969330478
 10
-13.89680024352981
 20
0.3156713677848799
 97
        0
 92
       18
 72
     0
 73
     1
 93
        3
 10
-7.093280769929606
 20
0.0932708602314349
 10
-9.170194694581312
 20
0.0932708602314349
 10
-8.652955594572177
 20
2.761748805527844
 97
        0
 92
       18
 72
     0
 73
     1
 93
        3
 10
-7.287296705143206
 20
5.44507532768413
 10
-6.909191231401451
 20
0.4947566898022799
 10
-9.801874483648589
 20
5.44507532768413
 97
        0
 92
       18
 72
     0
 73
     1
 93
        3
 10
-16.47528432796821
 20
5.44507532768413
 10
-10.69049207782763
 20
5.44507532768413
 10
-15.21799543871555
 20
3.293836482396792
 97
        0
 92
       18
 72
     0
 73
     1
 93
        3
 10
-19.28683364367157
 20
5.44507532768413
 10
-17.10360062724965
 20
5.44507532768413
 10
-18.72931470256748
 20
2.662895020355606
 97
        0
 92
       18
 72
     0
 73
     1
 93
        3
 10
-23.04590264297593
 20
5.44507532768413
 10
-19.46075067650583
 20
5.44507532768413
 10
-18.90044249996942
 20
2.649359024875587
 97
        0
 92
       18
 72
     0
 73
     1
 93
        3
 10
-20.12614739976874
 20
0.2724382185850445
 10
-23.01858454300719
 20
5.222674820130713
 10
-18.86894054685223
 20
2.423841136544937
 97
        0
 92
       18
 72
     0
 73
     1
 93
        3
 10
-13.76669061424923
 20
-0.2652279291483737
 10
-15.02373339449326
 20
-2.416548810771992
 10
-19.55172897339867
 20
-0.2652279291483737
 97
        0
 92
       18
 72
     0
 73
     1
 93
        3
 10
-17.91543221070549
 20
-3.511077608919592
 10
-19.76059348547216
 20
-0.3530888452640895
 10
-15.1946150828864
 20
-2.522703829869791
 97
        0
 92
       18
 72
     0
 73
     1
 93
        3
 10
-11.57894559933391
 20
-2.934034019789785
 10
-13.13829227863158
 20
-0.2652279291483737
 10
-11.06096817229872
 20
-0.2652279291483737
 97
        0
 92
       18
 72
     0
 73
     1
 93
        3
 10
-7.196318408250306
 20
-0.2652279291483737
 10
-11.44317546285259
 20
-3.129936790736899
 10
-10.88754335748206
 20
-0.2652279291483737
 97
        0
 92
       18
 72
     0
 73
     1
 93
        3
 10
-4.882073362849042
 20
3.518944189046216
 10
-6.727890928305442
 20
0.3602991347008029
 10
-7.11461021735272
 20
5.426699188365838
 97
        0
 92
       18
 72
     0
 73
     1
 93
        3
 10
-3.756616865937872
 20
5.44507532768413
 10
-4.795032810095563
 20
3.667676066653883
 10
-6.875146151860804
 20
5.44507532768413
 97
        0
 92
       18
 72
     0
 73
     1
 93
        3
 10
-15.18977493904816
 20
-2.700722679516055
 10
-16.78923738676832
 20
-5.43811114725618
 10
-17.82863776696092
 20
-3.659399304846055
 97
        0
 92
       18
 72
     0
 73
     1
 93
        3
 10
-7.223390399210246
 20
-0.4880386183830439
 10
-10.11607365145744
 20
-5.43811114725618
 10
-11.37278828635647
 20
-3.286954338305051
 97
        0
 75
     0
 76
     1
 98
        0
  0
ENDBLK
  5
134F6
330
12425
100
AcDbEntity
  8
0
100
AcDbBlockEnd
  0
ENDSEC
  0
SECTION
  2
ENTITIES
  0
LINE
  5
13439
330
134C7
100
AcDbEntity
  8
Level 4
  6
Continuous
 62
     7
370
     0
100
AcDbLine
 10
-370.232473
 20
1103.541199
 30
0.0
 11
-370.232473
 21
821.054091
 31
0.0
  0
LINE
  5
1343B
330
134C7
100
AcDbEntity
  8
Level 4
  6
Continuous
 62
     7
370
     0
100
AcDbLine
 10
-365.467473
 20
843.524091
 30
0.0
 11
-365.467473
 21
821.054091
 31
0.0
  0
LINE
  5
13443
330
134C7
100
AcDbEntity
  8
Level 4
  6
Continuous
 62
     7
370
     0
100
AcDbLine
 10
-370.232473
 20
821.054091
 30
0.0
 11
-365.467473
 21
821.054091
 31
0.0
  0
ARC
  5
13444
330
134C7
100
AcDbEntity
  8
Level 4
  6
Continuous
 62
     7
370
     0
100
AcDbCircle
 10
-365.467473
 20
847.659091
 30
0.0
 40
4.135000000000001
100
AcDbArc
 50
270.0
 51
0.0
  0
LINE
  5
13447
330
134C7
100
AcDbEntity
  8
Level 4
  6
Continuous
 62
     7
370
     0
100
AcDbLine
 10
-357.590713
 20
1036.583496
 30
0.0
 11
-361.332473
 21
847.659091
 31
0.0
  0
ARC
  5
13448
330
134C7
100
AcDbEntity
  8
Level 4
  6
Continuous
 62
     7
370
     0
100
AcDbCircle
 10
354.591302
 20
1036.524091
 30
0.0
 40
3.0
210
0.0
220
0.0
230
-1.0
100
AcDbArc
 50
1.134629
 51
90.0
  0
LINE
  5
1344D
330
134C7
100
AcDbEntity
  8
Level 4
  6
Continuous
 62
     7
370
     0
100
AcDbLine
 10
-324.282473
 20
1045.741199
 30
0.0
 11
-324.282473
 21
1039.524091
 31
0.0
  0
LINE
  5
13458
330
134C7
100
AcDbEntity
  8
Level 4
  6
Continuous
 62
     7
370
     0
100
AcDbLine
 10
-354.591302
 20
1039.524091
 30
0.0
 11
-340.462473
 21
1039.524091
 31
0.0
  0
LINE
  5
13459
330
134C7
100
AcDbEntity
  8
Level 4
  6
Continuous
 62
     7
370
     0
100
AcDbLine
 10
-331.722473
 20
1039.524091
 30
0.0
 11
-324.282473
 21
1039.524091
 31
0.0
  0
LINE
  5
1345A
330
134C7
100
AcDbEntity
  8
Level 4
  6
Continuous
 62
     7
370
     0
100
AcDbLine
 10
-324.282473
 20
1045.741199
 30
0.0
 11
-284.232473
 21
1045.741199
 31
0.0
  0
LINE
  5
1346C
330
134C7
100
AcDbEntity
  8
Level 4
  6
Continuous
 62
     7
370
     0
100
AcDbLine
 10
-324.282473
 20
1029.206982
 30
0.0
 11
-324.282473
 21
1035.424091
 31
0.0
  0
LINE
  5
13477
330
134C7
100
AcDbEntity
  8
Level 4
  6
Continuous
 62
     7
370
     0
100
AcDbLine
 10
-346.082473
 20
1035.424091
 30
0.0
 11
-340.462473
 21
1035.424091
 31
0.0
  0
LINE
  5
13478
330
134C7
100
AcDbEntity
  8
Level 4
  6
Continuous
 62
     7
370
     0
100
AcDbLine
 10
-331.722473
 20
1035.424091
 30
0.0
 11
-324.282473
 21
1035.424091
 31
0.0
  0
LINE
  5
13479
330
134C7
100
AcDbEntity
  8
Level 4
  6
Continuous
 62
     7
370
     0
100
AcDbLine
 10
-324.282473
 20
1029.206982
 30
0.0
 11
-291.558459
 21
1029.206982
 31
0.0
  0
LINE
  5
1347A
330
134C7
100
AcDbEntity
  8
Level 4
  6
Continuous
 62
     7
370
     0
100
AcDbLine
 10
-320.185136
 20
997.406982
 30
0.0
 11
-291.558459
 21
997.406982
 31
0.0
  0
LINE
  5
1347B
330
134C7
100
AcDbEntity
  8
Level 4
  6
Continuous
 62
     7
370
     0
100
AcDbLine
 10
-291.558459
 20
997.406982
 30
0.0
 11
-291.558459
 21
1029.206982
 31
0.0
  0
LINE
  5
1347C
330
134C7
100
AcDbEntity
  8
Level 4
  6
Continuous
 62
     7
370
     0
100
AcDbLine
 10
-341.002473
 20
944.197803
 30
0.0
 11
-341.002473
 21
954.616161
 31
0.0
  0
LINE
  5
1347E
330
134C7
100
AcDbEntity
  8
Level 4
  6
Continuous
 62
     7
370
     0
100
AcDbLine
 10
-346.082473
 20
919.282679
 30
0.0
 11
-346.082473
 21
1035.424091
 31
0.0
  0
LINE
  5
13480
330
134C7
100
AcDbEntity
  8
Level 4
  6
Continuous
 62
     7
370
     0
100
AcDbLine
 10
-341.002473
 20
954.616161
 30
0.0
 11
-325.773666
 21
993.590633
 31
0.0
  0
ARC
  5
1348C
330
134C7
100
AcDbEntity
  8
Level 4
  6
Continuous
 62
     7
370
     0
100
AcDbCircle
 10
320.185136
 20
991.406982
 30
0.0
 40
5.999999999999999
210
0.0
220
0.0
230
-1.0
100
AcDbArc
 50
21.342477
 51
90.0
  0
LINE
  5
13494
330
134C7
100
AcDbEntity
  8
Level 4
  6
Continuous
 62
     7
370
     0
100
AcDbLine
 10
-344.832473
 20
910.574091
 30
0.0
 11
-328.652473
 21
910.574091
 31
0.0
  0
LINE
  5
13497
330
134C7
100
AcDbEntity
  8
Level 4
  6
Continuous
 62
     7
370
     0
100
AcDbLine
 10
-333.732473
 20
922.282679
 30
0.0
 11
-333.732473
 21
915.654091
 31
0.0
  0
LINE
  5
1349E
330
134C7
100
AcDbEntity
  8
Level 4
  6
Continuous
 62
     7
370
     0
100
AcDbLine
 10
-341.002473
 20
944.197803
 30
0.0
 11
-333.732473
 21
922.282679
 31
0.0
  0
LINE
  5
1349F
330
134C7
100
AcDbEntity
  8
Level 4
  6
Continuous
 62
     7
370
     0
100
AcDbLine
 10
-333.732473
 20
915.654091
 30
0.0
 11
-328.652473
 21
910.574091
 31
0.0
  0
LINE
  5
134A8
330
134C7
100
AcDbEntity
  8
Level 4
  6
Continuous
 62
     7
370
     0
100
AcDbLine
 10
-344.832473
 20
910.574091
 30
0.0
 11
-346.082473
 21
919.282679
 31
0.0
  0
LINE
  5
134A9
330
134C7
100
AcDbEntity
  8
Level 4
  6
Continuous
 62
     7
370
     0
100
AcDbLine
 10
-340.462473
 20
1039.524091
 30
0.0
 11
-340.462473
 21
1035.424091
 31
0.0
  0
LINE
  5
134AA
330
134C7
100
AcDbEntity
  8
Level 4
  6
Continuous
 62
     7
370
     0
100
AcDbLine
 10
-331.722473
 20
1039.524091
 30
0.0
 11
-331.722473
 21
1035.424091
 31
0.0
  0
LINE
  5
134AD
330
134C7
100
AcDbEntity
  8
Level 4
  6
Continuous
 62
     7
370
     0
100
AcDbLine
 10
-370.232473
 20
1103.541199
 30
0.0
 11
-284.232473
 21
1103.541199
 31
0.0
  0
LINE
  5
134AE
330
134C7
100
AcDbEntity
  8
Level 4
  6
Continuous
 62
     7
370
     0
100
AcDbLine
 10
-284.232473
 20
1103.541199
 30
0.0
 11
-284.232473
 21
1045.741199
 31
0.0
  0
VIEWPORT
  5
12441
330
134CB
100
AcDbEntity
 67
     1
  8
0
100
AcDbViewport
 10
50.0
 20
50.0
 30
0.0
 40
100.0
 41
100.0
 68
     1
 69
     1
 12
50.0
 22
50.0
 13
0.0
 23
0.0
 14
1.0
 24
1.0
 15
0.0
 25
0.0
 16
0.0
 26
0.0
 36
1.0
 17
0.0
 27
0.0
 37
0.0
 42
0.0
 43
0.0
 44
0.0
 45
100.0
 50
0.0
 51
0.0
 72
   100
 90
    32768
  1

281
     0
 71
     0
 74
     0
110
0.0
120
0.0
130
0.0
111
1.0
121
0.0
131
0.0
112
0.0
122
1.0
132
0.0
 79
     0
146
0.0
  0
ENDSEC
  0
SECTION
  2
OBJECTS
  0
DICTIONARY
  5
134DA
330
0
100
AcDbDictionary
281
     1
  3
ACAD_GROUP
350
134D8
  3
ACAD_LAYOUT
350
134DB
  3
ACAD_MLINESTYLE
350
134D9
  3
ACAD_PLOTSETTINGS
350
134DC
  3
ACAD_PLOTSTYLENAME
350
134DD
  3
AcadDim
350
134F7
  0
DICTIONARY
  5
134E3
330
134CF
100
AcDbDictionary
280
     1
281
     1
  3
ACAD_LAYERFILTERS
360
134E4
  0
DICTIONARY
  5
134D8
102
{ACAD_REACTORS
330
134DA
102
}
330
134DA
100
AcDbDictionary
281
     1
  0
DICTIONARY
  5
134DB
102
{ACAD_REACTORS
330
134DA
102
}
330
134DA
100
AcDbDictionary
281
     1
  3
Layout1
350
134CE
  3
Model
350
134CA
  0
DICTIONARY
  5
134D9
102
{ACAD_REACTORS
330
134DA
102
}
330
134DA
100
AcDbDictionary
281
     1
  3
STANDARD
350
123EB
  0
DICTIONARY
  5
134DC
102
{ACAD_REACTORS
330
134DA
102
}
330
134DA
100
AcDbDictionary
281
     1
  0
ACDBDICTIONARYWDFLT
  5
134DD
102
{ACAD_REACTORS
330
134DA
102
}
330
134DA
100
AcDbDictionary
281
     1
  3
Normal
350
134C0
100
AcDbDictionaryWithDefault
340
134C0
  0
XRECORD
  5
134F7
102
{ACAD_REACTORS
330
134DA
102
}
330
134DA
100
AcDbXrecord
280
     1
 90
   990106
  3
 
 60
     0
 61
     0
 62
     1
 63
     1
 64
     0
 65
     0
 66
     0
 67
     3
 68
     1
 69
     1
 70
     0
 71
     0
 72
     0
 40
0.0
170
     0
  0
DICTIONARY
  5
134E4
102
{ACAD_REACTORS
330
134E3
102
}
330
134E3
100
AcDbDictionary
281
     1
  0
LAYOUT
  5
134CE
102
{ACAD_REACTORS
330
134DB
330
134DB
102
}
330
134DB
100
AcDbPlotSettings
  1

  2
none_device
  4

  6

 40
0.0
 41
0.0
 42
0.0
 43
0.0
 44
0.0
 45
0.0
 46
0.0
 47
0.0
 48
0.0
 49
0.0
140
0.0
141
0.0
142
1.0
143
1.0
 70
   688
 72
     1
 73
     0
 74
     5
  7

 75
    16
147
25.4
148
0.0
149
0.0
100
AcDbLayout
  1
Layout1
 70
     1
 71
     1
 10
0.0
 20
0.0
 11
12.0
 21
9.0
 12
0.0
 22
0.0
 32
0.0
 14
1.000000E+20
 24
1.000000E+20
 34
1.000000E+20
 15
-1.000000E+20
 25
-1.000000E+20
 35
-1.000000E+20
146
0.0
 13
0.0
 23
0.0
 33
0.0
 16
1.0
 26
0.0
 36
0.0
 17
0.0
 27
1.0
 37
0.0
 76
     0
330
134CB
331
12441
  0
LAYOUT
  5
134CA
102
{ACAD_REACTORS
330
134DB
330
134DB
102
}
330
134DB
100
AcDbPlotSettings
  1

  2

  4

  6

 40
0.0
 41
0.0
 42
0.0
 43
0.0
 44
0.0
 45
0.0
 46
0.0
 47
0.0
 48
0.0
 49
0.0
140
0.0
141
0.0
142
1.0
143
1.0
 70
  1712
 72
     0
 73
     0
 74
     0
  7

 75
     0
147
1.0
148
0.0
149
0.0
100
AcDbLayout
  1
Model
 70
     1
 71
     0
 10
0.0
 20
0.0
 11
12.0
 21
9.0
 12
0.0
 22
0.0
 32
0.0
 14
0.0
 24
0.0
 34
0.0
 15
0.0
 25
0.0
 35
0.0
146
0.0
 13
0.0
 23
0.0
 33
0.0
 16
1.0
 26
0.0
 36
0.0
 17
0.0
 27
1.0
 37
0.0
 76
     0
330
134C7
  0
MLINESTYLE
  5
123EB
102
{ACAD_REACTORS
330
134D9
102
}
330
134D9
100
AcDbMlineStyle
  2
STANDARD
 70
     0
  3

 62
   256
 51
90.0
 52
90.0
 71
     2
 49
0.5
 62
   256
  6
BYLAYER
 49
-0.5
 62
   256
  6
BYLAYER
  0
ACDBPLACEHOLDER
  5
134C0
102
{ACAD_REACTORS
330
134DD
102
}
330
134DD
  0
ENDSEC
  0
SECTION
  2
THUMBNAILIMAGE
 90
    15464
310
28000000B40000005000000001000800000000004038000000040000000400000001000049000000FFFFFF002818000000F8F80000001800F8001800F8F800000000F800F0482800D000180080F8C0002000C800E8B820000000900070F0780000008800E0C088007800380058E87800F8F8F800F8E87800E8B08800D00088
310
0000007800E0F07800E0E878008010800060E87800700070006800080008000000E8000000C00000008000000070000000680000004000000028000000200000001000000070006800A04898006800680000489800700060005800400070005800600060002050B000B0489800B84000006000680038181800580050006000
310
5800200028007060C800280070005800480050489800D0304800D8A8280008B0880030002800400038002040780008807000600070006000780088B88800A8B8880020004000281858004850B000FFFFFF00FFFFFF00FFFFFF00FFFFFF00FFFFFF00FFFFFF00FFFFFF00FFFFFF00FFFFFF00FFFFFF00FFFFFF00FFFFFF00FF
310
FFFF00FFFFFF00FFFFFF00FFFFFF00FFFFFF00FFFFFF00FFFFFF00FFFFFF00FFFFFF00FFFFFF00FFFFFF00FFFFFF00FFFFFF00FFFFFF00FFFFFF00FFFFFF00FFFFFF00FFFFFF00FFFFFF00FFFFFF00FFFFFF00FFFFFF00FFFFFF00FFFFFF00FFFFFF00FFFFFF00FFFFFF00FFFFFF00FFFFFF00FFFFFF00FFFFFF00FFFFFF00
310
FFFFFF00FFFFFF00FFFFFF00FFFFFF00FFFFFF00FFFFFF00FFFFFF00FFFFFF00FFFFFF00FFFFFF00FFFFFF00FFFFFF00FFFFFF00FFFFFF00FFFFFF00FFFFFF00FFFFFF00FFFFFF00FFFFFF00FFFFFF00FFFFFF00FFFFFF00FFFFFF00FFFFFF00FFFFFF00FFFFFF00FFFFFF00FFFFFF00FFFFFF00FFFFFF00FFFFFF00FFFFFF
310
00FFFFFF00FFFFFF00FFFFFF00FFFFFF00FFFFFF00FFFFFF00FFFFFF00FFFFFF00FFFFFF00FFFFFF00FFFFFF00FFFFFF00FFFFFF00FFFFFF00FFFFFF00FFFFFF00FFFFFF00FFFFFF00FFFFFF00FFFFFF00FFFFFF00FFFFFF00FFFFFF00FFFFFF00FFFFFF00FFFFFF00FFFFFF00FFFFFF00FFFFFF00FFFFFF00FFFFFF00FFFF
310
FF00FFFFFF00FFFFFF00FFFFFF00FFFFFF00FFFFFF00FFFFFF00FFFFFF00FFFFFF00FFFFFF00FFFFFF00FFFFFF00FFFFFF00FFFFFF00FFFFFF00FFFFFF00FFFFFF00FFFFFF00FFFFFF00FFFFFF00FFFFFF00FFFFFF00FFFFFF00FFFFFF00FFFFFF00FFFFFF00FFFFFF00FFFFFF00FFFFFF00FFFFFF00FFFFFF00FFFFFF00FF
310
FFFF00FFFFFF00FFFFFF00FFFFFF00FFFFFF00FFFFFF00FFFFFF00FFFFFF00FFFFFF00FFFFFF00FFFFFF00FFFFFF00FFFFFF00FFFFFF00FFFFFF00FFFFFF00FFFFFF00FFFFFF00FFFFFF00FFFFFF00FFFFFF00FFFFFF00FFFFFF00FFFFFF00FFFFFF00FFFFFF00FFFFFF00FFFFFF00FFFFFF00FFFFFF00FFFFFF00FFFFFF00
310
FFFFFF00FFFFFF00FFFFFF00FFFFFF00FFFFFF00FFFFFF00FFFFFF00FFFFFF00FFFFFF00FFFFFF00FFFFFF00FFFFFF0000000000000000000000000000000000000000000000000000000000000000000000000000000000000000000000000000000000000000000000000000000000000000000000000000000000000000
310
00000000000000000000000000000000000000000000000000000000000000000000000000000000000000000000000000000000000000000000000000000000000000000000000000000000000000000000000000000000000000000000000000000000000000000000000000000000000000000000000000000000000000
310
00000000000000000000000000000000000000000000000000000000000000000000000000000000000000000000000000000000121200000000000000000000000000000000000000000000000000000000000000000000000000000000000000000000000000000000000000000000000000000000000000000000000000
310
00000000000000000000000000000000000000000000000000000000000000000000000000000000000000000000000000000000000000000000000000000000000000000000000000000000000000000000000000000000000000000000000000000000000000000012120000000000000000000000000000000000000000
310
00000000000000000000000000000000000000000000000000000000000000000000000000000000000000000000000000000000000000000000000000000000000000000000000000000000000000000000000000000000000000000000000000000000000000000000000000000000000000000000000000000000000000
310
00000000000000000000000000000000000000000000000000000000000000121200000000000000000000000000000000000000000000000000000000000000000000000000000000000000000000000000000000000000000000000000000000000000000000000000000000000000000000000000000000000000000000
310
00000000000000000000000000000000000000000000000000000000000000000000000000000000000000000000000000000000000000000000000000000000000000000000000000000000000000000000000012120000000000000000000000000000000000000000000000000000000000000000000000000000000000
310
00000000000000000000000000000000000000000000000000000000000000000000000000000000000000000000000000000000000000000000000000000000000000000000000000000000000000000000000000000000000000000000000000000000000000000000000000000000000000000000000000000000000000
310
00000000000000000000121200000000000000000000000000000000000000000000000000000000000000000000000000000000000000000000000000000000000000000000000000000000000000000000000000000000000000000000000000000000000000000000000000000000000000000000000000000000000000
310
00000000000000000000000000000000000000000000000000000000000000000000000000000000000000000000000000000000000000000000000000000012120000000000000000000000000000000000000000000000000000000000000000000000000000000000000000000000000000000000000000000000000000
310
00000000000000000000000000000000000000000000000000000000000000000000000000000000000000000000000000000000000000000000000000000000000000000000000000000000000000000000000000000000000000000000000000000000000000000000000000000000000000001212120000000000000000
310
00000000000000000000000000000000000000000000000000000000000000000000000000000000000000000000000000000000000000000000000000000000000000000000000000000000000000000000000000000000000000000000000000000000000000000000000000000000000000000000000000000000000000
310
00000000000000000000000000000000000000000000000000000000000000000000000000000000000012001200000000000000000000000000000000000000000000000000000000000000000000000000000000000000000000000000000000000000000000000000000000000000000000000000000000000000000000
310
00000000000000000000000000000000000000000000000000000000000000000000000000000000000000000000000000000000000000000000000000000000000000000000000000000000000000000000000000000000000000000000001200120000000000000000000000000000000000000000000000000000000000
310
00000000000000000000000000000000000000000000000000000000000000000000000000000000000000000000000000000000000000000000000000000000000000000000000000000000000000000000000000000000000000000000000000000000000000000000000000000000000000000000000000000000000000
310
00000000000000000000000000000000000000000012001200000000000000000000000000000000000000000000000000000000000000000000000000000000000000000000000000000000000000000000000000000000000000000000000000000000000000000000000000000000000000000000000000000000000000
310
00000000000000000000000000000000000000000000000000000000000000000000000000000000000000000000000000000000000000000000000000000000000000000000000000001200120000000000000000000000000000000000000000000000000000000000000000000000000000000000000000000000000000
310
00000000000000000000000000000000000000000000000000000000000000000000000000000000000000000000000000000000000000000000000000000000000000000000000000000000000000000000000000000000000000000000000000000000000000000000000000000000000000000000000000000000000000
310
12001200000000000000000000000000000000000000000000000000000000000000000000000000000000000000000000000000000000000000000000000000000000000000000000000000000000000000000000000000000000000000000000000000000000000000000000000000000000000000000000000000000000
310
00000000000000000000000000000000000000000000000000000000000000000000000000000000000000000000000000000000001200120000000000000000000000000000000000000000000000000000000000000000000000000000000000000000000000000000000000000000000000000000000000000000000000
310
00000000000000000000000000000000000000000000000000000000000000000000000000000000000000000000000000000000000000000000000000000000000000000000000000000000000000000000000000000000000000000000000000000000000000000000120012000000000000000000000000000000000000
310
00000000000000000000000000000000000000000000000000000000000000000000000000000000000000000000000000000000000000000000000000000000000000000000000000000000000000000000000000000000000000000000000000000000000000000000000000000000000000000000000000000000000000
310
00000000000000000000000000000000000000000000000000000000000000001200120000000000000000000000000000000000000000000000000000000000000000000000000000000000000000000000000000000000000000000000000000000000000000000000000000000000000000000000000000000000000000
310
00000000000000000000000000000000000000000000000000000000000000000000000000000000000000000000000000000000000000000000000000000000000000000000000000000000000000000000000000120012000000000000000000000000000000000000000000000000000000000000000000000000000000
310
00000000000000000000000000000000000000000000000000000000000000000000000000000000000000000000000000000000000000000000000000000000000000000000000000000000000000000000000000000000000000000000000000000000000000000000000000000000000000000000000000000000000000
310
00000000000000000000001200120000000000000000000000000000000000000000000000000000000000000000000000000000000000000000000000000000000000000000000000000000000000000000000000000000000000000000000000000000000000000000000000000000000000000000000000000000000000
310
00000000000000000000000000000000000000000000000000000000000000000000000000000000000000000000000000000000000000000000000000000000120012000000000000000000000000000000000000000000000000000000000000000000000000000000000000000000000000000000000000000000000000
310
00000000000000000000000000000000000000000000000000000000000000000000000000000000000000000000000000000000000000000000000000000000000000000000000000000000000000000000000000000000000000000000000000000000000000000000000000000000000000000012001200000000000000
310
00000000000000000000000000000000000000000000000000000000000000000000000000000000000000000000000000000000000000000000000000000000000000000000000000000000000000000000000000000000000000000000000000000000000000000000000000000000000000000000000000000000000000
310
00000000000000000000000000000000000000000000000000000000000000000000000000000000000000120012000000000000000000000000000000000000000000000000000000000000000000000000000000000000000000000000000000000000000000000000000000000000000000000000000000000000000000
310
00000000000000000000000000000000000000000000000000000000000000000000000000000000000000000000000000000000000000000000000000000000000000000000000000000000000000000000000000000000000000000000000012001200000000000000000000000000000000000000000000000000000000
310
00000000000000000000000000000000000000000000000000000000000000000000000000000000000000000000000000000000000000000000000000000000000000000000000000000000000000000000000000000000000000000000000000000000000000000000000000000000000000000000000000000000000000
310
00000000000000000000000000000000000000000000120012000000000000000000000000000000000000000000000000000000000000000000000000000000000000000000000000000000000000000000000000000000000000000000000000000000000000000000000000000000000000000000000000000000000000
310
00000000000000000000000000000000000000000000000000000000000000000000000000000000000000000000000000000000000000000000000000000000000000000000000000000012001200000000000000000000000000000000000000000000000000000000000000000000000000000000000000000000000000
310
00000000000000000000000000000000000000000000000000000000000000000000000000000000000000000000000000000000000000000000000000000000000000000000000000000000000000000000000000000000000000000000000000000000000000000000000000000000000000000000000000000000000000
310
00120012000000000000000000000000000000000000000000000000000000000000000000000000000000000000000000000000000000000000000000000000000000000000000000000000000000000000000000000000000000000000000000000000000000000000000000000000000000000000000000000000000000
310
00000000000000000000000000000000000000000000000000000000000000000000000000000000000000000000000000000000000012001200000000121212121200000000000000000000000000000000000000000000000000000000000000000000000000000000000000000000000000000000000000000000000000
310
00000000000000000000000000000000000000000000000000000000000000000000000000000000000000000000000000000000000000000000000000000000000000000000000000000000000000000000000000000000000000000000000000000000000000000000001200120000001200000012000000000000000000
310
00000000000000000000000000000000000000000000000000000000000000000000000000000000000000000000000000000000000000000000000000000000000000000000000000000000000000000000000000000000000000000000000000000000000000000000000000000000000000000000000000000000000000
310
00000000000000000000000000000000000000000000000000000000000000000012001200000012000000120000000000000000000000000000000000000000000000000000000000000000000000000000000000000000000000000000000000000000000000000000000000000000000000000000000000000000000000
310
00000000000000000000000000000000000000000000000000000000000000000000000000000000000000000000000000000000000000000000000000000000000000000000000000000000000000000000000000001200120000001200000012000000000000000000000000000000000000000000000000000000000000
310
00000000000000000000000000000000000000000000000000000000000000000000000000000000000000000000000000000000000000000000000000000000000000000000000000000000000000000000000000000000000000000000000000000000000000000000000000000000000000000000000000000000000000
310
00000000000000000000000012001200000012000000120000000000000000000000000000000000000000000000000000000000000000000000000000000000000000000000000000000000000000000000000000000000000000000000000000000000000000000000000000000000000000000000000000000000000000
310
00000000000000000000000000000000000000000000000000000000000000000000000000000000000000000000000000000000000000000000000000000000001200120000001200001200000000000000000000000000000000000000000000000000000000000000000000000000000000000000000000000000000000
310
00000000000000000000000000000000000000000000000000000000000000000000000000000000000000000000000000000000000000000000000000000000000000000000000000000000000000000000000000000000000000000000000000000000000000000000000000000000000000000000120012000000120000
310
12000000000000000000000000000000000000000000000000000000000000000000000000000000000000000000000000000000000000000000000000000000000000000000000000000000000000000000000000000000000000000000000000000000000000000000000000000000000000000000000000000000000000
310
00000000000000000000000000000000000000000000000000000000000000000000000000000000000000001200120000001200001200000000000000000000000000000000000000000000000000000000000000000000000000000000000000000000000000000000000000000000000000000000000000000000000000
310
00000000000000000000000000000000000000000000000000000000000000000000000000000000000000000000000000000000000000000000000000000000000000000000000000000000000000000000000000000000000000000000000000120012000000120012000000000000000000000000000000000000000000
310
00000000000000000000000000000000000000000000000000000000000000000000000000000000000000000000000000000000000000000000000000000000000000000000000000000000000000000000000000000000000000000000000000000000000000000000000000000000000000000000000000000000000000
310
00000000000000000000000000000000000000000000001200001200001200120000000000000000000000000000000000000000000000000000000000000000000000000000000000000000000000000000000000000000000000000000000000000000000000000000000000000000000000000000000000000000000000
310
00000000000000000000000000000000000000000000000000000000000000000000000000000000000000000000000000000000000000000000000000000000000000000000000000000000120000120000120012000000000000000000000000000000000000000000000000000000000000000000000000000000000000
310
00000000000000000000000000000000000000000000000000000000000000000000000000000000000000000000000000000000000000000000000000000000000000000000000000000000000000000000000000000000000000000000000000000000000000000000000000000000000000000000000000000000000000
310
00001200001200001200120000000000000000000000000000000000000000000000000000000000000000000000000000000000000000000000000000000000000000000000000000000000000000000000000000000000000000000000000000000000000000000000000000000000000000000000000000000000000000
310
00000000000000000000000000000000000000000000000000000000000000000000000000000000000000000000000000000000000000120000120000120012000000000000000000000000000000000000000000000000000000000000000000000000000000000000000000000000000000000000000000000000000000
310
00000000000000000000000000000000000000000000000000000000000000000000000000000000000000000000000000000000000000000000000000000000000000000000000000000000000000000000000000000000000000000000000000000000000000000000000012000012000012000012000000000000000000
310
00000000000000000000000000000000000000000000000000000000000000000000000000000000000000000000000000000000000000000000000000000000000000000000000000000000000000000000000000000000000000000000000000000000000000000000000000000000000000000000000000000000000000
310
00000000000000000000000000000000000000000000000000000000000000000000120000120000120000120000000000000000000000000000000000000000000000000000000000000000000000000000000000000000000000000000000000000000000000000000000000000000000000000000000000000000000000
310
00000000000000000000000000000000000000000000000000000000000000000000000000000000000000000000000000000000000000000000000000000000000000000000000000000000000000000000000000000012000012000012000012000000000000000000000000000000000000000000000000000000000000
310
00000000000000000000000000000000000000000000000000000000000000000000000000000000000000000000000000000000000000000000000000000000000000000000000000000000000000000000000000000000000000000000000000000000000000000000000000000000000000000000000000000000000000
310
00000000000000000000000000120000120000120000001200000000000000000000000000000000000000000000000000000000000000000000000000000000000000000000000000000000000000000000000000000000000000000000000000000000000000000000000000000000000000000000000000000000000000
310
00000000000000000000000000000000000000000000000000000000000000000000000000000000000000000000000000000000000000000000000000000000000012000012000012000000120000000000000000000000000000000000000000000000000000000000000000000000000000000000000000000000000000
310
00000000000000000000000000000000000000000000000000000000000000000000000000000000000000000000000000000000000000000000000000000000000000000000000000000000000000000000000000000000000000000000000000000000000000000000000000000000000000000000001200001200001200
310
00000012000000000000000000000000000000000000000000000000000000000000000000000000000000000000000000000000000000000000000000000000000000000000000000000000000000000000000000000000000000000000000000000000000000000000000000000000000000000000000000000000000000
310
00000000000000000000000000000000000000000000000000000000000000000000000000000000000000000012000012000012000000001200000000000000000000000000000000000000000000000000000000000000000000000000000000000000000000000000000000000000000000000000000000000000000000
310
00000000000000000000000000000000000000000000000000000000000000000000000000000000000000000000000000000000000000000000000000000000000000000000000000000000000000000000000000000000000000000000000000001200001200001200000000120000000000000000000000000000000000
310
00000000000000000000000000000000000000000000000000000000000000000000000000000000000000000000000000000000000000000000000000000000000000000000000000000000000000000000000000000000000000000000000000000000000000000000000000000000000000000000000000000000000000
310
00000000000000000000000000000000000000000000000012000012000012000000000012000000000000000000000000000000000000000000000000000000000000000000000000000000000000000000000000000000000000000000000000000000000000000000000000000000000000000000000000000000000000
310
00000000000000000000000000000000000000000000000000000000000000000000000000000000000000000000000000000000000000000000000000000000000000000000000000000000001200001200001200000000001200000000000000000000000000000000000000000000000000000000000000000000000000
310
00000000000000000000000000000000000000000000000000000000000000000000000000000000000000000000000000000000000000000000000000000000000000000000000000000000000000000000000000000000000000000000000000000000000000000000000000000000000000000000000000000000000000
310
00000012000012000012000000000012121212121212121212000000000000000000000000000000000000000000000000000000000000000000000000000000000000000000000000000000000000000000000000000000000000000000000000000000000000000000000000000000000000000000000000000000000000
310
00000000000000000000000000000000000000000000000000000000000000000000000000000000000000000000000000000000000000001200001200001200000000000000000000000000001200000000000000000000000000000000000000000000000000000000000000000000000000000000000000000000000000
310
00000000000000000000000000000000000000000000000000000000000000000000000000000000000000000000000000000000000000000000000000000000000000000000000000000000000000000000000000000000000000000000000000000000000000000000000000120000120000120000000000000000000000
310
00000012000000000000000000000000000000000000000000000000000000000000000000000000000000000000000000000000000000000000000000000000000000000000000000000000000000000000000000000000000000000000000000000000000000000000000000000000000000000000000000000000000000
310
00000000000000000000000000000000000000000000000000000000000000000000001200001200001200000000000000000000000000001200000000000000000000000000000000000000000000000000000000000000000000000000000000000000000000000000000000000000000000000000000000000000000000
310
00000000000000000000000000000000000000000000000000000000000000000000000000000000000000000000000000000000000000000000000000000000000000000000000000000000000000000000000000000000120000120000120000000000000000000000000000120000000000000000000000000000000000
310
00000000000000000000000000000000000000000000000000000000000000000000000000000000000000000000000000000000000000000000000000000000000000000000000000000000000000000000000000000000000000000000000000000000000000000000000000000000000000000000000000000000000000
310
00000000000000000000000000001200001200001200000000000000000000000000001200000000000000000000000000000000000000000000000000000000000000000000000000000000000000000000000000000000000000000000000000000000000000000000000000000000000000000000000000000000000000
310
00000000000000000000000000000000000000000000000000000000000000000000000000000000000000000000000000000000000000000000000000000000000000120000120000120000000000000000000000000000120000000000000000000000000000000000000000000000000000000000000000000000000000
310
00000000000000000000000000000000000000000000000000000000000000000000000000000000000000000000000000000000000000000000000000000000000000000000000000000000000000000000000000000000000000000000000000000000000000000000000000000000000000000000000012000012000012
310
00000000000000000000000000001200000000000000000000000000000000000000000000000000000000000000000000000000000000000000000000000000000000000000000000000000000000000000000000000000000000000000000000000000000000000000000000000000000000000000000000000000000000
310
00000000000000000000000000000000000000000000000000000000000000000000000000000000000000000000120000120000120000000000121212121212121212120000000000000000000000000000000000000000000000000000000000000000000000000000000000000000000000000000000000000000000000
310
00000000000000000000000000000000000000000000000000000000000000000000000000000000000000000000000000000000000000000000000000000000000000000000000000000000000000000000000000000000000000000000000000000012000012000012000000000012000000000000000000000000000000
310
00000000000000000000000000000000000000000000000000000000000000000000000000000000000000000000000000000000000000000000000000000000000000000000000000000000000000000000000000000000000000000000000000000000000000000000000000000000000000000000000000000000000000
310
00000000000000000000000000000000000000000000000000120000120000121212001212120000000000000000000000000000000000000000000000000000000000000000000000000000000000000000000000000000000000000000000000000000000000000000000000000000000000000000000000000000000000
310
00000000000000000000000000000000000000000000000000000000000000000000000000000000000000000000000000000000000000000000000000000000000000000000000000000000000012000012121212121200121212000000000000000000000000000000000000000000000000000000000000000000000000
310
00000000000000000000000000000000000000000000000000000000000000000000000000000000000000000000000000000000000000000000000000000000000000000000000000000000000000000000000000000000000000000000000000000000000000000000000000000000000000000000000000000000000000
310
00000000120000000000000000000000120000000000000000000000000000000000000000000000000000000000000000000000000000000000000000000000000000000000000000000000000000000000000000000000000000000000000000000000000000000000000000000000000000000000000000000000000000
310
00000000000000000000000000000000000000000000000000000000000000000000000000000000000000000000000000000000000000000012000000000000000000000012121212121212121212121200000000000000000000000000000000000000000000000000000000000000000000000000000000000000000000
310
00000000000000000000000000000000000000000000000000000000000000000000000000000000000000000000000000000000000000000000000000000000000000000000000000000000000000000000000000000000000000000000000000000000000000000000000000001200000000000000000000000000000000
310
00000000000012000000000000000000000000000000000000000000000000000000000000000000000000000000000000000000000000000000000000000000000000000000000000000000000000000000000000000000000000000000000000000000000000000000000000000000000000000000000000000000000000
310
00000000000000000000000000000000000000000000000000000000000000000000000012000000000000000000000000000000000000000000001200000000000000000000000000000000000000000000000000000000000000000000000000000000000000000000000000000000000000000000000000000000000000
310
00000000000000000000000000000000000000000000000000000000000000000000000000000000000000000000000000000000000000000000000000000000000000000000000000000000000000000000000000000000001200000000000000000000000000000000000000000000120000000000000000000000000000
310
00000000000000000000000000000000000000000000000000000000000000000000000000000000000000000000000000000000000000000000000000000000000000000000000000000000000000000000000000000000000000000000000000000000000000000000000000000000000000000000000000000000000000
310
00000000000000000000000000000012000000000000000000000000000000000000000000001200000000000000000000000000000000000000000000000000000000000000000000000000000000000000000000000000000000000000000000000000000000000000000000000000000000000000000000000000000000
310
00000000000000000000000000000000000000000000000000000000000000000000000000000000000000000000000000000000000000000000000000000000000000001200000000000000000000000000000000000000000000120000000000000000000000000000000000000000000000000000000000000000000000
310
00000000000000000000000000000000000000000000000000000000000000000000000000000000000000000000000000000000000000000000000000000000000000000000000000000000000000000000000000000000000000000000000000000000000000000000000000000000000000000000000000120000000000
310
00000000000000000000000000000000001200000000000000000000000000000000000000000000000000000000000000000000000000000000000000000000000000000000000000000000000000000000000000000000000000000000000000000000000000000000000000000000000000000000000000000000000000
310
00000000000000000000000000000000000000000000000000000000000000000000000000000000000000000000001200000000000000000000000000000000000000000000120000000000000000000000000000000000000000000000000000000000000000000000000000000000000000000000000000000000000000
310
00000000000000000000000000000000000000000000000000000000000000000000000000000000000000000000000000000000000000000000000000000000000000000000000000000000000000000000000000000000000000000000000000000000120000000000000000000000000000000000000000000012000000
310
00000000000000000000000000000000000000000000000000000000000000000000000000000000000000000000000000000000000000000000000000000000000000000000000000000000000000000000000000000000000000000000000000000000000000000000000000000000000000000000000000000000000000
310
00000000000000000000000000000000000000000000000000001200000000000000000000000000000000000000000000120000000000000000000000000000000000000000000000000000000000000000000000000000000000000000000000000000000000000000000000000000000000000000000000000000000000
310
00000000000000000000000000000000000000000000000000000000000000000000000000000000000000000000000000000000000000000000000000000000000000000000000000000000000000120000000000000000000000000000000000000000000012000000000000000000000000000000000000000000000000
310
00000000000000000000000000000000000000000000000000000000000000000000000000000000000000000000000000000000000000000000000000000000000000000000000000000000000000000000000000000000000000000000000000000000000000000000000000000000000000000000000000000000000000
310
00000000001200000000000000000000000000000000000000000000120000000000000000000000000000000000000000000000000000000000000000000000000000000000000000000000000000000000000000000000000000000000000000000000000000000000000000000000000000000000000000000000000000
310
00000000000000000000000000000000000000000000000000000000000000000000000000000000000000000000000000000000000000000000120000000000000000000000000000000000000000000012000000000000000000000000000000000000000000000000000000000000000000000000000000000000000000
310
00000000000000000000000000000000000000000000000000000000000000000000000000000000000000000000000000000000000000000000000000000000000000000000000000000000000000000000000000000000000000000000000000000000000000000000000000000012000000000000000000000000000000
310
00000000000000120000000000000000000000000000000000000000000000000000000000000000000000000000000000000000000000000000000000000000000000000000000000000000000000000000000000000000000000000000000000000000000000000000000000000000000000000000000000000000000000
310
00000000000000000000000000000000000000000000000000000000000000000000000000120000000000000000000000000000000000000000000012000000000000000000000000000000000000000000000000000000000000000000000000000000000000000000000000000000000000000000000000000000000000
310
00000000000000000000000000000000000000000000000000000000000000000000000000000000000000000000000000000000000000000000000000000000000000000000000000000000000000000000000000000000000012121212121212121212121212121212121212121212121200000000000000000000000000
310
00000000000000000000000000000000000000000000000000000000000000000000000000000000000000000000000000000000000000000000000000000000000000000000000000000000000000000000000000000000000000000000000000000000000000000000000000000000000000000000000000000000000000
310
00000000000000000000000000000000000000000000000000000000000000000000000000000000000000000000000000000000000000000000000000000000000000000000000000000000000000000000000000000000000000000000000000000000000000000000000000000000000000000000000000000000000000
310
00000000000000000000000000000000000000000000000000000000000000000000000000000000000000000000000000000000000000000000000000000000000000000000000000000000000000000000000000000000000000000000000000000000000000000000000000000000000000000000000000000000000000
310
000000000000000000000000000000000000000000000000000000000000000000000000000000000000000000060512021212001212121212122F0C121A23150C264800090000161A1125262830170F26251A0C213D410C00212008030000002A00000000200400260321000C332F331344000000171A0D143A1A21310045
310
00371D1A3A1C1900001C1A0000170000003F341B424246294236103E2C421B43391B2E1B292B1B271B29382700000000000000000000000000000000000000000000000000470B011E26261D0000261D173B000A241F000740261D243B0100223C
  0
ENDSEC
  0
EOF
