  0
SECTION
  2
HEADER
  9
$ACADVER
  1
AC1014
  9
$ACADMAINTVER
 70
     9
  9
$DWGCODEPAGE
  3
ANSI_1252
  9
$INSBASE
 10
0.0
 20
0.0
 30
0.0
  9
$EXTMIN
 10
0.0
 20
0.0
 30
0.0
  9
$EXTMAX
 10
11.6929133858
 20
8.2677165354
 30
0.0
  9
$LIMMIN
 10
0.0
 20
0.0
  9
$LIMMAX
 10
11.6929133858
 20
8.2677165354
  9
$ORTHOMODE
 70
     0
  9
$REGENMODE
 70
     1
  9
$FILLMODE
 70
     1
  9
$QTEXTMODE
 70
     0
  9
$MIRRTEXT
 70
     1
  9
$DRAGMODE
 70
     2
  9
$LTSCALE
 40
1.0
  9
$OSMODE
 70
    37
  9
$ATTMODE
 70
     1
  9
$TEXTSIZE
 40
0.1377952756
  9
$TRACEWID
 40
0.05
  9
$TEXTSTYLE
  7
STANDARD
  9
$CLAYER
  8
0
  9
$CELTYPE
  6
BYLAYER
  9
$CECOLOR
 62
   256
  9
$CELTSCALE
 40
1.0
  9
$DELOBJ
 70
     1
  9
$DISPSILH
 70
     0
  9
$DIMSCALE
 40
1.0
  9
$DIMASZ
 40
0.13
  9
$DIMEXO
 40
0.0393700787
  9
$DIMDLI
 40
0.38
  9
$DIMRND
 40
0.0
  9
$DIMDLE
 40
0.0
  9
$DIMEXE
 40
0.0393700787
  9
$DIMTP
 40
0.0
  9
$DIMTM
 40
0.0
  9
$DIMTXT
 40
0.1377952756
  9
$DIMCEN
 40
0.09
  9
$DIMTSZ
 40
0.0
  9
$DIMTOL
 70
     0
  9
$DIMLIM
 70
     0
  9
$DIMTIH
 70
     1
  9
$DIMTOH
 70
     1
  9
$DIMSE1
 70
     0
  9
$DIMSE2
 70
     0
  9
$DIMTAD
 70
     1
  9
$DIMZIN
 70
     0
  9
$DIMBLK
  1

  9
$DIMASO
 70
     1
  9
$DIMSHO
 70
     1
  9
$DIMPOST
  1

  9
$DIMAPOST
  1

  9
$DIMALT
 70
     0
  9
$DIMALTD
 70
     2
  9
$DIMALTF
 40
25.4
  9
$DIMLFAC
 40
1.0
  9
$DIMTOFL
 70
     0
  9
$DIMTVP
 40
0.0
  9
$DIMTIX
 70
     0
  9
$DIMSOXD
 70
     0
  9
$DIMSAH
 70
     0
  9
$DIMBLK1
  1

  9
$DIMBLK2
  1

  9
$DIMSTYLE
  2
STANDARD
  9
$DIMCLRD
 70
     0
  9
$DIMCLRE
 70
     0
  9
$DIMCLRT
 70
     0
  9
$DIMTFAC
 40
1.0
  9
$DIMGAP
 40
0.06
  9
$DIMJUST
 70
     0
  9
$DIMSD1
 70
     0
  9
$DIMSD2
 70
     0
  9
$DIMTOLJ
 70
     1
  9
$DIMTZIN
 70
     0
  9
$DIMALTZ
 70
     0
  9
$DIMALTTZ
 70
     0
  9
$DIMFIT
 70
     3
  9
$DIMUPT
 70
     0
  9
$DIMUNIT
 70
     2
  9
$DIMDEC
 70
     2
  9
$DIMTDEC
 70
     2
  9
$DIMALTU
 70
     2
  9
$DIMALTTD
 70
     2
  9
$DIMTXSTY
  7
STANDARD
  9
$DIMAUNIT
 70
     0
  9
$LUNITS
 70
     2
  9
$LUPREC
 70
     2
  9
$SKETCHINC
 40
0.1
  9
$FILLETRAD
 40
0.5
  9
$AUNITS
 70
     0
  9
$AUPREC
 70
     2
  9
$MENU
  1
.
  9
$ELEVATION
 40
0.0
  9
$PELEVATION
 40
0.0
  9
$THICKNESS
 40
0.0
  9
$LIMCHECK
 70
     0
  9
$CHAMFERA
 40
0.5
  9
$CHAMFERB
 40
0.5
  9
$CHAMFERC
 40
1.0
  9
$CHAMFERD
 40
0.0
  9
$SKPOLY
 70
     0
  9
$TDCREATE
 40
2456470.37066309
  9
$TDUPDATE
 40
2456470.370663449
  9
$TDINDWG
 40
0.0000000116
  9
$TDUSRTIMER
 40
0.0000000116
  9
$USRTIMER
 70
     1
  9
$ANGBASE
 50
0.0
  9
$ANGDIR
 70
     0
  9
$PDMODE
 70
     0
  9
$PDSIZE
 40
-1.0
  9
$PLINEWID
 40
0.0
  9
$COORDS
 70
     1
  9
$SPLFRAME
 70
     0
  9
$SPLINETYPE
 70
     6
  9
$SPLINESEGS
 70
     8
  9
$ATTDIA
 70
     0
  9
$ATTREQ
 70
     1
  9
$HANDLING
 70
     1
  9
$HANDSEED
  5
495
  9
$SURFTAB1
 70
     6
  9
$SURFTAB2
 70
     6
  9
$SURFTYPE
 70
     6
  9
$SURFU
 70
     6
  9
$SURFV
 70
     6
  9
$UCSNAME
  2

  9
$UCSORG
 10
0.0
 20
0.0
 30
0.0
  9
$UCSXDIR
 10
1.0
 20
0.0
 30
0.0
  9
$UCSYDIR
 10
0.0
 20
1.0
 30
0.0
  9
$PUCSNAME
  2

  9
$PUCSORG
 10
0.0
 20
0.0
 30
0.0
  9
$PUCSXDIR
 10
1.0
 20
0.0
 30
0.0
  9
$PUCSYDIR
 10
0.0
 20
1.0
 30
0.0
  9
$USERI1
 70
     0
  9
$USERI2
 70
     0
  9
$USERI3
 70
     0
  9
$USERI4
 70
     0
  9
$USERI5
 70
     0
  9
$USERR1
 40
0.0
  9
$USERR2
 40
0.0
  9
$USERR3
 40
0.0
  9
$USERR4
 40
0.0
  9
$USERR5
 40
0.0
  9
$WORLDVIEW
 70
     1
  9
$SHADEDGE
 70
     3
  9
$SHADEDIF
 70
    70
  9
$TILEMODE
 70
     1
  9
$MAXACTVP
 70
    64
  9
$PINSBASE
 10
0.0
 20
0.0
 30
0.0
  9
$PLIMCHECK
 70
     0
  9
$PEXTMIN
 10
1.0000000000E+20
 20
1.0000000000E+20
 30
1.0000000000E+20
  9
$PEXTMAX
 10
-1.0000000000E+20
 20
-1.0000000000E+20
 30
-1.0000000000E+20
  9
$PLIMMIN
 10
0.0
 20
0.0
  9
$PLIMMAX
 10
12.0
 20
9.0
  9
$UNITMODE
 70
     0
  9
$VISRETAIN
 70
     1
  9
$PLINEGEN
 70
     0
  9
$PSLTSCALE
 70
     1
  9
$TREEDEPTH
 70
  3020
  9
$PICKSTYLE
 70
     1
  9
$CMLSTYLE
  2
STANDARD
  9
$CMLJUST
 70
     0
  9
$CMLSCALE
 40
1.0
  9
$PROXYGRAPHICS
 70
     1
  9
$MEASUREMENT
 70
     0
  0
ENDSEC
  0
SECTION
  2
CLASSES
  0
CLASS
  1
ACDBDICTIONARYWDFLT
  2
AcDbDictionaryWithDefault
  3
ObjectDBX Classes
 90
        0
280
     0
281
     0
  0
CLASS
  1
VISUALSTYLE
  2
AcDbVisualStyle
  3
ObjectDBX Classes
 90
     4095
280
     0
281
     0
  0
CLASS
  1
MATERIAL
  2
AcDbMaterial
  3
ObjectDBX Classes
 90
     1153
280
     0
281
     0
  0
CLASS
  1
XRECORD
  2
AcDbXrecord
  3
AutoCAD 2000
 90
        0
280
     0
281
     0
  0
CLASS
  1
LWPOLYLINE
  2
AcDbPolyline
  3
AutoCAD 2000
 90
        0
280
     0
281
     1
  0
CLASS
  1
HATCH
  2
AcDbHatch
  3
AutoCAD 2000
 90
        0
280
     0
281
     1
  0
ENDSEC
  0
SECTION
  2
TABLES
  0
TABLE
  2
VPORT
  5
8
330
0
100
AcDbSymbolTable
 70
     1
  0
VPORT
  5
29
330
8
100
AcDbSymbolTableRecord
100
AcDbViewportTableRecord
  2
*ACTIVE
 70
     0
 10
0.0
 20
0.0
 11
1.0
 21
1.0
 12
5.8464566929
 22
4.1338582677
 13
0.0
 23
0.0
 14
0.5
 24
0.5
 15
0.5
 25
0.5
 16
0.0
 26
0.0
 36
1.0
 17
0.0
 27
0.0
 37
0.0
 40
8.2677165354
 41
1.4142857143
 42
50.0
 43
0.0
 44
0.0
 50
0.0
 51
0.0
 71
     0
 72
  2000
 73
     1
 74
     3
 75
     0
 76
     0
 77
     0
 78
     0
  0
ENDTAB
  0
TABLE
  2
LTYPE
  5
5
330
0
100
AcDbSymbolTable
 70
     6
  0
LTYPE
  5
14
330
5
100
AcDbSymbolTableRecord
100
AcDbLinetypeTableRecord
  2
BYBLOCK
 70
     0
  3

 72
    65
 73
     0
 40
0.0
  0
LTYPE
  5
15
330
5
100
AcDbSymbolTableRecord
100
AcDbLinetypeTableRecord
  2
BYLAYER
 70
     0
  3

 72
    65
 73
     0
 40
0.0
  0
LTYPE
  5
16
330
5
100
AcDbSymbolTableRecord
100
AcDbLinetypeTableRecord
  2
CONTINUOUS
 70
     0
  3
Solid line
 72
    65
 73
     0
 40
0.0
  0
LTYPE
  5
3F
330
5
100
AcDbSymbolTableRecord
100
AcDbLinetypeTableRecord
  2
HIDDEN
 70
     0
  3
Hidden __ __ __ __ __ __ __ __ __ __ __ __ __ __
 72
    65
 73
     2
 40
0.075
 49
0.05
 74
     0
 49
-0.025
 74
     0
  0
LTYPE
  5
40
330
5
100
AcDbSymbolTableRecord
100
AcDbLinetypeTableRecord
  2
PHANTOM
 70
     0
  3
Phantom ______  __  __  ______  __  __  ______
 72
    65
 73
     6
 40
0.5
 49
0.25
 74
     0
 49
-0.05
 74
     0
 49
0.05
 74
     0
 49
-0.05
 74
     0
 49
0.05
 74
     0
 49
-0.05
 74
     0
  0
LTYPE
  5
41
330
5
100
AcDbSymbolTableRecord
100
AcDbLinetypeTableRecord
  2
CENTER
 70
     0
  3
Center ____ _ ____ _ ____ _ ____ _ ____ _ ____
 72
    65
 73
     4
 40
0.4
 49
0.25
 74
     0
 49
-0.05
 74
     0
 49
0.05
 74
     0
 49
-0.05
 74
     0
  0
LTYPE
  5
42
330
5
100
AcDbSymbolTableRecord
100
AcDbLinetypeTableRecord
  2
CENTERX2
 70
     0
  3
Center (2x) ________  __  ________  __  _____
 72
    65
 73
     4
 40
0.8
 49
0.5
 74
     0
 49
-0.1
 74
     0
 49
0.1
 74
     0
 49
-0.1
 74
     0
  0
LTYPE
  5
43
330
5
100
AcDbSymbolTableRecord
100
AcDbLinetypeTableRecord
  2
DOT2
 70
     0
  3
Dot (.5x) ........................................
 72
    65
 73
     2
 40
0.025
 49
0.0
 74
     0
 49
-0.025
 74
     0
  0
ENDTAB
  0
TABLE
  2
LAYER
  5
2
330
0
100
AcDbSymbolTable
 70
     1
  0
LAYER
  5
10
330
2
100
AcDbSymbolTableRecord
100
AcDbLayerTableRecord
  2
0
 70
     0
 62
     7
  6
CONTINUOUS
  0
ENDTAB
  0
TABLE
  2
STYLE
  5
3
330
0
100
AcDbSymbolTable
 70
     1
  0
STYLE
  5
11
330
3
100
AcDbSymbolTableRecord
100
AcDbTextStyleTableRecord
  2
STANDARD
 70
     0
 40
0.0
 41
1.0
 50
0.0
 71
     0
 42
0.1377952756
  3
txt
  4

  0
ENDTAB
  0
TABLE
  2
VIEW
  5
6
330
0
100
AcDbSymbolTable
 70
     0
  0
ENDTAB
  0
TABLE
  2
UCS
  5
7
330
0
100
AcDbSymbolTable
 70
     0
  0
ENDTAB
  0
TABLE
  2
APPID
  5
9
330
0
100
AcDbSymbolTable
 70
     1
  0
APPID
  5
12
330
9
100
AcDbSymbolTableRecord
100
AcDbRegAppTableRecord
  2
ACAD
 70
     0
  0
ENDTAB
  0
TABLE
  2
DIMSTYLE
  5
A
330
0
100
AcDbSymbolTable
 70
     1
  0
DIMSTYLE
105
27
330
A
100
AcDbSymbolTableRecord
100
AcDbDimStyleTableRecord
  2
STANDARD
 70
     0
  3

  4

  5

  6

  7

 40
1.0
 41
0.18
 42
0.0625
 43
0.38
 44
0.18
 45
0.0
 46
0.0
 47
0.0
 48
0.0
140
0.18
141
0.09
142
0.0
143
25.4
144
1.0
145
0.0
146
1.0
147
0.09
 71
     0
 72
     0
 73
     1
 74
     1
 75
     0
 76
     0
 77
     0
 78
     0
170
     0
171
     2
172
     0
173
     0
174
     0
175
     0
176
     0
177
     0
178
     0
270
     2
271
     4
272
     4
273
     2
274
     2
340
11
275
     0
280
     0
281
     0
282
     0
283
     1
284
     0
285
     0
286
     0
287
     3
288
     0
  0
ENDTAB
  0
TABLE
  2
BLOCK_RECORD
  5
1
330
0
100
AcDbSymbolTable
 70
     2
  0
BLOCK_RECORD
  5
1F
330
1
100
AcDbSymbolTableRecord
100
AcDbBlockTableRecord
  2
*MODEL_SPACE
  0
BLOCK_RECORD
  5
1B
330
1
100
AcDbSymbolTableRecord
100
AcDbBlockTableRecord
  2
*PAPER_SPACE
  0
BLOCK_RECORD
  5
23
330
1
100
AcDbSymbolTableRecord
100
AcDbBlockTableRecord
  2
*PAPER_SPACE0
  0
BLOCK_RECORD
  5
222
330
1
100
AcDbSymbolTableRecord
100
AcDbBlockTableRecord
  2
SW_CENTERMARKSYMBOL_0
  0
ENDTAB
  0
ENDSEC
  0
SECTION
  2
BLOCKS
  0
BLOCK
  5
20
330
1F
100
AcDbEntity
  8
0
100
AcDbBlockBegin
  2
*MODEL_SPACE
 70
     0
 10
0.0
 20
0.0
 30
0.0
  3
*MODEL_SPACE
  1

  0
ENDBLK
  5
21
330
1F
100
AcDbEntity
  8
0
100
AcDbBlockEnd
  0
BLOCK
  5
1C
330
1B
100
AcDbEntity
 67
     1
  8
0
100
AcDbBlockBegin
  2
*PAPER_SPACE
 70
     0
 10
0.0
 20
0.0
 30
0.0
  3
*PAPER_SPACE
  1

  0
ENDBLK
  5
1D
330
1B
100
AcDbEntity
 67
     1
  8
0
100
AcDbBlockEnd
  0
BLOCK
  5
24
330
23
100
AcDbEntity
  8
0
100
AcDbBlockBegin
  2
*PAPER_SPACE0
 70
     0
 10
0.0
 20
0.0
 30
0.0
  3
*PAPER_SPACE0
  1

  0
ENDBLK
  5
25
330
23
100
AcDbEntity
  8
0
100
AcDbBlockEnd
  0
BLOCK
  5
223
330
222
100
AcDbEntity
  8
0
100
AcDbBlockBegin
  2
SW_CENTERMARKSYMBOL_0
 70
     0
 10
0.0
 20
0.0
 30
0.0
  3
SW_CENTERMARKSYMBOL_0
  1

  0
LINE
  5
225
330
222
100
AcDbEntity
  8
0
  6
CONTINUOUS
 62
     0
100
AcDbLine
 10
0.0
 20
0.0
 30
0.0
 11
0.0
 21
0.0984251969
 31
0.0
  0
LINE
  5
226
330
222
100
AcDbEntity
  8
0
  6
CONTINUOUS
 62
     0
100
AcDbLine
 10
0.0
 20
0.0
 30
0.0
 11
-0.0984251969
 21
0.0
 31
0.0
  0
LINE
  5
227
330
222
100
AcDbEntity
  8
0
  6
CONTINUOUS
 62
     0
100
AcDbLine
 10
0.0
 20
0.0
 30
0.0
 11
0.0
 21
-0.0984251969
 31
0.0
  0
LINE
  5
228
330
222
100
AcDbEntity
  8
0
  6
CONTINUOUS
 62
     0
100
AcDbLine
 10
0.0
 20
0.0
 30
0.0
 11
0.0984251969
 21
0.0
 31
0.0
  0
LINE
  5
229
330
222
100
AcDbEntity
  8
0
  6
CONTINUOUS
 62
     0
100
AcDbLine
 10
0.0
 20
0.0984251969
 30
0.0
 11
0.0
 21
0.1299212598
 31
0.0
  0
LINE
  5
22A
330
222
100
AcDbEntity
  8
0
  6
CONTINUOUS
 62
     0
100
AcDbLine
 10
-0.0984251969
 20
0.0
 30
0.0
 11
-0.1299212598
 21
0.0
 31
0.0
  0
LINE
  5
22B
330
222
100
AcDbEntity
  8
0
  6
CONTINUOUS
 62
     0
100
AcDbLine
 10
0.0
 20
-0.0984251969
 30
0.0
 11
0.0
 21
-0.1299212598
 31
0.0
  0
LINE
  5
22C
330
222
100
AcDbEntity
  8
0
  6
CONTINUOUS
 62
     0
100
AcDbLine
 10
0.0984251969
 20
0.0
 30
0.0
 11
0.1299212598
 21
0.0
 31
0.0
  0
ENDBLK
  5
224
330
222
100
AcDbEntity
  8
0
100
AcDbBlockEnd
  0
ENDSEC
  0
SECTION
  2
ENTITIES
  0
ARC
  5
44
330
1F
100
AcDbEntity
  8
0
  6
CONTINUOUS
 62
     7
100
AcDbCircle
 10
4.3332681066
 20
2.1616679877
 30
0.0
 40
0.0787401574803157
100
AcDbArc
 50
180.0
 51
270.0
  0
ARC
  5
45
330
1F
100
AcDbEntity
  8
0
  6
CONTINUOUS
 62
     7
100
AcDbCircle
 10
4.4120082641
 20
2.1616679877
 30
0.0
 40
0.0787401574803148
100
AcDbArc
 50
270.0
 51
0.0
  0
LINE
  5
46
330
1F
100
AcDbEntity
  8
0
  6
CONTINUOUS
 62
     7
100
AcDbLine
 10
4.3332681066
 20
2.0829278302
 30
0.0
 11
4.4120082641
 21
2.0829278302
 31
0.0
  0
LINE
  5
47
330
1F
100
AcDbEntity
  8
0
  6
CONTINUOUS
 62
     7
100
AcDbLine
 10
4.4907484216
 20
2.2205848549
 30
0.0
 11
4.4907484216
 21
2.1616679877
 31
0.0
  0
LINE
  5
48
330
1F
100
AcDbEntity
  8
0
  6
CONTINUOUS
 62
     7
100
AcDbLine
 10
4.2545279491
 20
2.1616679877
 30
0.0
 11
4.2545279491
 21
2.2205848549
 31
0.0
  0
ELLIPSE
  5
49
330
1F
100
AcDbEntity
  8
0
  6
CONTINUOUS
 62
     7
100
AcDbEllipse
 10
4.4120082641
 20
2.6534421158
 30
0.0
 11
0.0
 21
-0.09039785622646912
 31
0.0
210
0.0
220
0.0
230
1.0
 40
0.8710400973
 41
1.716052293511861
 42
3.141592653589793
  0
ELLIPSE
  5
4A
330
1F
100
AcDbEntity
  8
0
  6
CONTINUOUS
 62
     7
100
AcDbEllipse
 10
4.4120082641
 20
2.5491252523
 30
0.0
 11
0.0
 21
0.8110884156286562
 31
0.0
210
0.0
220
0.0
230
1.0
 40
0.0970796228
 41
4.712388980384691
 42
4.857644947101653
  0
LINE
  5
4B
330
1F
100
AcDbEntity
  8
0
  6
CONTINUOUS
 62
     7
100
AcDbLine
 10
4.4907484216
 20
2.5491252523
 30
0.0
 11
4.4907484216
 21
2.2205848549
 31
0.0
  0
ELLIPSE
  5
4C
330
1F
100
AcDbEntity
  8
0
  6
CONTINUOUS
 62
     7
100
AcDbEllipse
 10
4.3332681066
 20
2.5491252523
 30
0.0
 11
0.0
 21
0.8110884156286557
 31
0.0
210
0.0
220
0.0
230
1.0
 40
0.0970796228
 41
1.425540360077937
 42
1.570796326794897
  0
ELLIPSE
  5
4D
330
1F
100
AcDbEntity
  8
0
  6
CONTINUOUS
 62
     7
100
AcDbEllipse
 10
4.3332681066
 20
2.6534421158
 30
0.0
 11
0.0
 21
0.09039785622646912
 31
0.0
210
0.0
220
0.0
230
1.0
 40
0.8710400973
 41
0.0
 42
1.425540360077937
  0
LINE
  5
4E
330
1F
100
AcDbEntity
  8
0
  6
CONTINUOUS
 62
     7
100
AcDbLine
 10
4.2545279491
 20
2.2205848549
 30
0.0
 11
4.2545279491
 21
2.5491252523
 31
0.0
  0
LINE
  5
4F
330
1F
100
AcDbEntity
  8
0
  6
CONTINUOUS
 62
     7
100
AcDbLine
 10
4.3332681066
 20
2.743839972
 30
0.0
 11
4.4120082641
 21
2.743839972
 31
0.0
  0
ELLIPSE
  5
50
330
1F
100
AcDbEntity
  8
0
  6
CONTINUOUS
 62
     7
100
AcDbEllipse
 10
4.3726381853
 20
2.7065358696
 30
0.0
 11
0.0
 21
0.2408471214582115
 31
0.0
210
0.0
220
0.0
230
1.0
 40
0.9782960274
 41
1.652390838794429
 42
2.210652016092923
  0
ARC
  5
51
330
1F
100
AcDbEntity
  8
0
  6
CONTINUOUS
 62
     7
100
AcDbCircle
 10
4.3724127792
 20
2.6612976675
 30
0.0
 40
0.2360039268878842
100
AcDbArc
 50
173.7707130482
 51
240.0328308067
  0
ELLIPSE
  5
52
330
1F
100
AcDbEntity
  8
0
  6
CONTINUOUS
 62
     7
100
AcDbEllipse
 10
4.3726381853
 20
2.7065358696
 30
0.0
 11
0.0
 21
0.2408471214578633
 31
0.0
210
0.0
220
0.0
230
1.0
 40
0.9782960274
 41
4.072533291092628
 42
4.630794468389583
  0
ARC
  5
53
330
1F
100
AcDbEntity
  8
0
  6
CONTINUOUS
 62
     7
100
AcDbCircle
 10
4.3726934398
 20
2.6613533573
 30
0.0
 40
0.2361670426824818
100
AcDbArc
 50
299.9920052855
 51
6.2113767828
  0
ARC
  5
54
330
1F
100
AcDbEntity
  8
0
  6
CONTINUOUS
 62
     7
100
AcDbCircle
 10
4.3726381853
 20
2.6613672317
 30
0.0
 40
0.1708955782912283
100
AcDbArc
 50
313.7192422337
 51
226.2807577663
  0
ARC
  5
55
330
1F
100
AcDbEntity
  8
0
  6
CONTINUOUS
 62
     7
100
AcDbCircle
 10
4.3726381853
 20
2.6613672317
 30
0.0
 40
0.1807380979762676
100
AcDbArc
 50
310.8051256071
 51
229.1948743929
  0
LINE
  5
56
330
1F
100
AcDbEntity
  8
0
  6
CONTINUOUS
 62
     7
100
AcDbLine
 10
4.3968877512
 20
2.8639521799
 30
0.0
 11
4.3968877512
 21
2.8783769894
 31
0.0
  0
LINE
  5
57
330
1F
100
AcDbEntity
  8
0
  6
CONTINUOUS
 62
     7
100
AcDbLine
 10
4.3505624434
 20
2.8785723541
 30
0.0
 11
4.3505624434
 21
2.8639521799
 31
0.0
  0
LINE
  5
58
330
1F
100
AcDbEntity
  8
0
  6
CONTINUOUS
 62
     7
100
AcDbLine
 10
4.3505624434
 20
2.8639521799
 30
0.0
 11
4.3968877512
 21
2.8639521799
 31
0.0
  0
ELLIPSE
  5
59
330
1F
100
AcDbEntity
  8
0
  6
CONTINUOUS
 62
     7
100
AcDbEllipse
 10
4.3726381853
 20
2.6630817601
 30
0.0
 11
0.0
 21
-0.2149015554814482
 31
0.0
210
0.0
220
0.0
230
1.0
 40
0.9946184089
 41
0.5854509909216331
 42
1.084944495670605
  0
ELLIPSE
  5
5A
330
1F
100
AcDbEntity
  8
0
  6
CONTINUOUS
 62
     7
100
AcDbEllipse
 10
4.3726381853
 20
2.6630817601
 30
0.0
 11
0.0
 21
-0.2149015554814482
 31
0.0
210
0.0
220
0.0
230
1.0
 40
0.9946184089
 41
5.198240811508995
 42
5.697734316257964
  0
ELLIPSE
  5
5B
330
1F
100
AcDbEntity
  8
0
  6
CONTINUOUS
 62
     7
100
AcDbEllipse
 10
4.3726381853
 20
2.6091811386
 30
0.0
 11
0.0
 21
-0.2703346609460584
 31
-5.551115123125783E-17
210
0.0
220
-2.053423376676597E-16
230
1.0
 40
0.9782960274
 41
2.270343980025503
 42
3.049771576721175
  0
ELLIPSE
  5
5C
330
1F
100
AcDbEntity
  8
0
  6
CONTINUOUS
 62
     7
100
AcDbEllipse
 10
4.3726381853
 20
2.6091811386
 30
0.0
 11
0.0
 21
-0.2703346609484716
 31
-5.551115123125783E-17
210
0.0
220
-2.053423376658267E-16
230
1.0
 40
0.9782960274
 41
3.225162367276217
 42
4.012841327148503
  0
ARC
  5
5D
330
1F
100
AcDbEntity
  8
0
  6
CONTINUOUS
 62
     7
100
AcDbCircle
 10
4.3726381853
 20
2.6613672317
 30
0.0
 40
0.2362204724409449
100
AcDbArc
 50
6.2065812048
 51
31.0600630584
  0
ARC
  5
5E
330
1F
100
AcDbEntity
  8
0
  6
CONTINUOUS
 62
     7
100
AcDbCircle
 10
4.3726381853
 20
2.6613672317
 30
0.0
 40
0.2362204724409455
100
AcDbArc
 50
148.9399369418
 51
173.7934187949
  0
ARC
  5
5F
330
1F
100
AcDbEntity
  8
0
  6
CONTINUOUS
 62
     7
100
AcDbCircle
 10
4.3713287245
 20
2.6640709537
 30
0.0
 40
0.2334085751978015
100
AcDbArc
 50
95.1043350396
 51
149.0253732358
  0
ARC
  5
60
330
1F
100
AcDbEntity
  8
0
  6
CONTINUOUS
 62
     7
100
AcDbCircle
 10
4.3729117913
 20
2.6620196568
 30
0.0
 40
0.2355434961458074
100
AcDbArc
 50
31.0721218352
 51
84.1577471025
  0
LINE
  5
61
330
1F
100
AcDbEntity
  8
0
  6
CONTINUOUS
 62
     7
100
AcDbLine
 10
4.3968877512
 20
2.8792053677
 30
0.0
 11
4.3968877512
 21
2.8963397198
 31
0.0
  0
LINE
  5
62
330
1F
100
AcDbEntity
  8
0
  6
CONTINUOUS
 62
     7
100
AcDbLine
 10
4.3505624434
 20
2.8965539091
 30
0.0
 11
4.3505624434
 21
2.8794007324
 31
0.0
  0
ARC
  5
63
330
1F
100
AcDbEntity
  8
0
  6
CONTINUOUS
 62
     7
100
AcDbCircle
 10
4.3726381853
 20
2.6613672317
 30
0.0
 40
0.3142767508631775
100
AcDbArc
 50
87.0551687232
 51
115.2599250209
  0
LINE
  5
64
330
1F
100
AcDbEntity
  8
0
  6
CONTINUOUS
 62
     7
100
AcDbLine
 10
4.2385283109
 20
2.9455932293
 30
0.0
 11
4.2806455946
 21
2.9824090368
 31
0.0
  0
ARC
  5
65
330
1F
100
AcDbEntity
  8
0
  6
CONTINUOUS
 62
     7
100
AcDbCircle
 10
4.3726381853
 20
2.6613672317
 30
0.0
 40
0.3339617902332558
100
AcDbArc
 50
96.325758236
 51
105.9893355081
  0
LINE
  5
66
330
1F
100
AcDbEntity
  8
0
  6
CONTINUOUS
 62
     7
100
AcDbLine
 10
4.3358418909
 20
2.993295703
 30
0.0
 11
4.3887839573
 21
2.9752289691
 31
0.0
  0
ARC
  5
67
330
1F
100
AcDbEntity
  8
0
  6
CONTINUOUS
 62
     7
100
AcDbCircle
 10
4.3726381853
 20
2.6613672317
 30
0.0
 40
0.3142767508631774
100
AcDbArc
 50
147.0551687232
 51
175.2599250209
  0
LINE
  5
68
330
1F
100
AcDbEntity
  8
0
  6
CONTINUOUS
 62
     7
100
AcDbLine
 10
4.0594363138
 20
2.6873376724
 30
0.0
 11
4.0486115311
 21
2.7422202137
 31
0.0
  0
ARC
  5
69
330
1F
100
AcDbEntity
  8
0
  6
CONTINUOUS
 62
     7
100
AcDbCircle
 10
4.3726381853
 20
2.6613672317
 30
0.0
 40
0.3339617902332553
100
AcDbArc
 50
156.325758236
 51
165.9893355081
  0
LINE
  5
6A
330
1F
100
AcDbEntity
  8
0
  6
CONTINUOUS
 62
     7
100
AcDbLine
 10
4.0667815497
 20
2.7954649416
 30
0.0
 11
4.1088988335
 21
2.8322807491
 31
0.0
  0
ARC
  5
6B
330
1F
100
AcDbEntity
  8
0
  6
CONTINUOUS
 62
     7
100
AcDbCircle
 10
4.3726381853
 20
2.6613672317
 30
0.0
 40
0.3142767508631766
100
AcDbArc
 50
327.0551687232
 51
355.2599250209
  0
LINE
  5
6C
330
1F
100
AcDbEntity
  8
0
  6
CONTINUOUS
 62
     7
100
AcDbLine
 10
4.6858400569
 20
2.6353967911
 30
0.0
 11
4.6966648395
 21
2.5805142498
 31
0.0
  0
ARC
  5
6D
330
1F
100
AcDbEntity
  8
0
  6
CONTINUOUS
 62
     7
100
AcDbCircle
 10
4.3726381853
 20
2.6613672317
 30
0.0
 40
0.3339617902332553
100
AcDbArc
 50
336.325758236
 51
345.9893355081
  0
LINE
  5
6E
330
1F
100
AcDbEntity
  8
0
  6
CONTINUOUS
 62
     7
100
AcDbLine
 10
4.6784948209
 20
2.5272695219
 30
0.0
 11
4.6363775372
 21
2.4904537144
 31
0.0
  0
ARC
  5
6F
330
1F
100
AcDbEntity
  8
0
  6
CONTINUOUS
 62
     7
100
AcDbCircle
 10
4.3726381853
 20
2.6613672317
 30
0.0
 40
0.3142767508631771
100
AcDbArc
 50
27.0551687232
 51
55.2599250209
  0
LINE
  5
70
330
1F
100
AcDbEntity
  8
0
  6
CONTINUOUS
 62
     7
100
AcDbLine
 10
4.5517301824
 20
2.9196227887
 30
0.0
 11
4.6046722488
 21
2.9015560548
 31
0.0
  0
ARC
  5
71
330
1F
100
AcDbEntity
  8
0
  6
CONTINUOUS
 62
     7
100
AcDbCircle
 10
4.3726381853
 20
2.6613672317
 30
0.0
 40
0.3339617902332552
100
AcDbArc
 50
36.325758236
 51
45.9893355081
  0
LINE
  5
72
330
1F
100
AcDbEntity
  8
0
  6
CONTINUOUS
 62
     7
100
AcDbLine
 10
4.6416985265
 20
2.8591979932
 30
0.0
 11
4.6525233091
 21
2.8043154518
 31
0.0
  0
LINE
  5
73
330
1F
100
AcDbEntity
  8
0
  6
CONTINUOUS
 62
     7
100
AcDbLine
 10
4.4907484216
 20
2.3701287586
 30
0.0
 11
4.5067480598
 21
2.3771412342
 31
0.0
  0
LINE
  5
74
330
1F
100
AcDbEntity
  8
0
  6
CONTINUOUS
 62
     7
100
AcDbLine
 10
4.5067480598
 20
2.3771412342
 30
0.0
 11
4.4907484216
 21
2.3631555364
 31
0.0
  0
ARC
  5
75
330
1F
100
AcDbEntity
  8
0
  6
CONTINUOUS
 62
     7
100
AcDbCircle
 10
4.3726381853
 20
2.6613672317
 30
0.0
 40
0.3142767508631771
100
AcDbArc
 50
207.0551687232
 51
235.2599250209
  0
LINE
  5
76
330
1F
100
AcDbEntity
  8
0
  6
CONTINUOUS
 62
     7
100
AcDbLine
 10
4.5517301824
 20
2.9196227887
 30
0.0
 11
4.3887839573
 21
2.9752289691
 31
0.0
  0
LINE
  5
77
330
1F
100
AcDbEntity
  8
0
  6
CONTINUOUS
 62
     7
100
AcDbLine
 10
4.6858400569
 20
2.6353967911
 30
0.0
 11
4.6525233091
 21
2.8043154518
 31
0.0
  0
LINE
  5
78
330
1F
100
AcDbEntity
  8
0
  6
CONTINUOUS
 62
     7
100
AcDbLine
 10
4.5067480598
 20
2.3771412342
 30
0.0
 11
4.6363775372
 21
2.4904537144
 31
0.0
  0
LINE
  5
79
330
1F
100
AcDbEntity
  8
0
  6
CONTINUOUS
 62
     7
100
AcDbLine
 10
4.0594363138
 20
2.6873376724
 30
0.0
 11
4.0927530615
 21
2.5184190117
 31
0.0
  0
LINE
  5
7A
330
1F
100
AcDbEntity
  8
0
  6
CONTINUOUS
 62
     7
100
AcDbLine
 10
4.2385283109
 20
2.9455932293
 30
0.0
 11
4.1088988335
 21
2.8322807491
 31
0.0
  0
ARC
  5
7B
330
1F
100
AcDbEntity
  8
0
  6
CONTINUOUS
 62
     7
100
AcDbCircle
 10
4.3726381853
 20
2.6613672317
 30
0.0
 40
0.229698357918315
100
AcDbArc
 50
83.9207679324
 51
95.5157434972
  0
LINE
  5
7C
330
1F
100
AcDbEntity
  8
0
  6
CONTINUOUS
 62
     7
100
AcDbLine
 10
4.1935461882
 20
2.4031116748
 30
0.0
 11
4.2545279491
 21
2.3823013566
 31
0.0
  0
ARC
  5
7D
330
1F
100
AcDbEntity
  8
0
  6
CONTINUOUS
 62
     7
100
AcDbCircle
 10
4.3726381853
 20
2.6613672317
 30
0.0
 40
0.3339617902332556
100
AcDbArc
 50
216.325758236
 51
225.9893355081
  0
LINE
  5
7E
330
1F
100
AcDbEntity
  8
0
  6
CONTINUOUS
 62
     7
100
AcDbLine
 10
4.1035778442
 20
2.4635364703
 30
0.0
 11
4.0927530615
 21
2.5184190117
 31
0.0
  0
LINE
  5
7F
330
1F
100
AcDbEntity
  8
0
  6
CONTINUOUS
 62
     7
100
AcDbLine
 10
4.1935461882
 20
2.4031116748
 30
0.0
 11
4.1406041218
 21
2.4211784087
 31
0.0
  0
LINE
  5
80
330
1F
100
AcDbEntity
  8
0
  6
CONTINUOUS
 62
     7
100
AcDbLine
 10
4.1035778442
 20
2.4635364703
 30
0.0
 11
4.1098632639
 21
2.4316688738
 31
0.0
  0
LINE
  5
81
330
1F
100
AcDbEntity
  8
0
  6
CONTINUOUS
 62
     7
100
AcDbLine
 10
4.1098632639
 20
2.4316688738
 30
0.0
 11
4.1406041218
 21
2.4211784087
 31
0.0
  0
LINE
  5
82
330
1F
100
AcDbEntity
  8
0
  6
CONTINUOUS
 62
     7
100
AcDbLine
 10
4.3358418909
 20
2.993295703
 30
0.0
 11
4.3051010329
 21
3.0037861682
 31
0.0
  0
LINE
  5
83
330
1F
100
AcDbEntity
  8
0
  6
CONTINUOUS
 62
     7
100
AcDbLine
 10
4.3051010329
 20
3.0037861682
 30
0.0
 11
4.2806455946
 21
2.9824090368
 31
0.0
  0
LINE
  5
84
330
1F
100
AcDbEntity
  8
0
  6
CONTINUOUS
 62
     7
100
AcDbLine
 10
4.0423261114
 20
2.7740878102
 30
0.0
 11
4.0486115311
 21
2.7422202137
 31
0.0
  0
LINE
  5
85
330
1F
100
AcDbEntity
  8
0
  6
CONTINUOUS
 62
     7
100
AcDbLine
 10
4.0667815497
 20
2.7954649416
 30
0.0
 11
4.0423261114
 21
2.7740878102
 31
0.0
  0
LINE
  5
86
330
1F
100
AcDbEntity
  8
0
  6
CONTINUOUS
 62
     7
100
AcDbLine
 10
4.6354131068
 20
2.8910655897
 30
0.0
 11
4.6046722488
 21
2.9015560548
 31
0.0
  0
LINE
  5
87
330
1F
100
AcDbEntity
  8
0
  6
CONTINUOUS
 62
     7
100
AcDbLine
 10
4.6416985265
 20
2.8591979932
 30
0.0
 11
4.6354131068
 21
2.8910655897
 31
0.0
  0
LINE
  5
88
330
1F
100
AcDbEntity
  8
0
  6
CONTINUOUS
 62
     7
100
AcDbLine
 10
4.7029502592
 20
2.5486466532
 30
0.0
 11
4.6966648395
 21
2.5805142498
 31
0.0
  0
LINE
  5
89
330
1F
100
AcDbEntity
  8
0
  6
CONTINUOUS
 62
     7
100
AcDbLine
 10
4.6784948209
 20
2.5272695219
 30
0.0
 11
4.7029502592
 21
2.5486466532
 31
0.0
  0
ARC
  5
8A
330
1F
100
AcDbEntity
  8
0
  6
CONTINUOUS
 62
     7
100
AcDbCircle
 10
4.3726381853
 20
2.6613672317
 30
0.0
 40
0.342908659158746
100
AcDbArc
 50
222.9752037946
 51
249.8526025089
  0
ARC
  5
8B
330
1F
100
AcDbEntity
  8
0
  6
CONTINUOUS
 62
     7
100
AcDbCircle
 10
4.3726381853
 20
2.6613672317
 30
0.0
 40
0.3429086591587459
100
AcDbArc
 50
342.9752037946
 51
39.3398899496
  0
ARC
  5
8C
330
1F
100
AcDbEntity
  8
0
  6
CONTINUOUS
 62
     7
100
AcDbCircle
 10
4.3726381853
 20
2.6613672317
 30
0.0
 40
0.3429086591587457
100
AcDbArc
 50
42.9752037946
 51
99.3398899496
  0
ARC
  5
8D
330
1F
100
AcDbEntity
  8
0
  6
CONTINUOUS
 62
     7
100
AcDbCircle
 10
4.3726381853
 20
2.6613672317
 30
0.0
 40
0.3429086591587457
100
AcDbArc
 50
290.1473974911
 51
339.3398899496
  0
ARC
  5
8E
330
1F
100
AcDbEntity
  8
0
  6
CONTINUOUS
 62
     7
100
AcDbCircle
 10
4.3726381853
 20
2.6613672317
 30
0.0
 40
0.3429086591587459
100
AcDbArc
 50
162.9752037946
 51
219.3398899496
  0
ARC
  5
8F
330
1F
100
AcDbEntity
  8
0
  6
CONTINUOUS
 62
     7
100
AcDbCircle
 10
4.3726381853
 20
2.6613672317
 30
0.0
 40
0.3429086591587462
100
AcDbArc
 50
102.9752037946
 51
159.3398899496
  0
LINE
  5
90
330
1F
100
AcDbEntity
  8
0
  6
CONTINUOUS
 62
     7
100
AcDbLine
 10
4.1649908698
 20
2.3802164417
 30
0.0
 11
4.1785305305
 21
2.378686198
 31
0.0
  0
LINE
  5
91
330
1F
100
AcDbEntity
  8
0
  6
CONTINUOUS
 62
     7
100
AcDbLine
 10
4.4987585934
 20
2.3424942301
 30
0.0
 11
4.5122982541
 21
2.3409639864
 31
0.0
  0
LINE
  5
92
330
1F
100
AcDbEntity
  8
0
  6
CONTINUOUS
 62
     7
100
AcDbLine
 10
4.025330801
 20
2.700619687
 30
0.0
 11
4.0307754015
 21
2.6881288751
 31
0.0
  0
LINE
  5
93
330
1F
100
AcDbEntity
  8
0
  6
CONTINUOUS
 62
     7
100
AcDbLine
 10
4.1595462693
 20
2.3927072536
 30
0.0
 11
4.1649908698
 21
2.3802164417
 31
0.0
  0
LINE
  5
94
330
1F
100
AcDbEntity
  8
0
  6
CONTINUOUS
 62
     7
100
AcDbLine
 10
4.2329781166
 20
2.9817704771
 30
0.0
 11
4.2248830564
 21
2.9708099088
 31
0.0
  0
LINE
  5
95
330
1F
100
AcDbEntity
  8
0
  6
CONTINUOUS
 62
     7
100
AcDbLine
 10
4.0334258613
 20
2.7115802553
 30
0.0
 11
4.025330801
 21
2.700619687
 31
0.0
  0
LINE
  5
96
330
1F
100
AcDbEntity
  8
0
  6
CONTINUOUS
 62
     7
100
AcDbLine
 10
4.7199455696
 20
2.6221147765
 30
0.0
 11
4.7145009692
 21
2.6346055884
 31
0.0
  0
LINE
  5
97
330
1F
100
AcDbEntity
  8
0
  6
CONTINUOUS
 62
     7
100
AcDbLine
 10
4.5857301013
 20
2.9300272099
 30
0.0
 11
4.5802855009
 21
2.9425180218
 31
0.0
  0
LINE
  5
98
330
1F
100
AcDbEntity
  8
0
  6
CONTINUOUS
 62
     7
100
AcDbLine
 10
4.5122982541
 20
2.3409639864
 30
0.0
 11
4.5203933143
 21
2.3519245547
 31
0.0
  0
LINE
  5
99
330
1F
100
AcDbEntity
  8
0
  6
CONTINUOUS
 62
     7
100
AcDbLine
 10
4.7118505094
 20
2.6111542082
 30
0.0
 11
4.7199455696
 21
2.6221147765
 31
0.0
  0
LINE
  5
9A
330
1F
100
AcDbEntity
  8
0
  6
CONTINUOUS
 62
     7
100
AcDbLine
 10
4.5802855009
 20
2.9425180218
 30
0.0
 11
4.5667458402
 21
2.9440482655
 31
0.0
  0
LINE
  5
9B
330
1F
100
AcDbEntity
  8
0
  6
CONTINUOUS
 62
     7
100
AcDbLine
 10
4.2465177773
 20
2.9802402334
 30
0.0
 11
4.2329781166
 21
2.9817704771
 31
0.0
  0
LINE
  5
9C
330
1F
100
AcDbEntity
  8
0
  6
CONTINUOUS
 62
     7
100
AcDbLine
 10
4.6679137759
 20
3.0452254995
 30
0.0
 11
4.0773625948
 21
3.0452254995
 31
0.0
  0
LINE
  5
9D
330
1F
100
AcDbEntity
  8
0
  6
CONTINUOUS
 62
     7
100
AcDbLine
 10
4.0773625948
 20
2.277508964
 30
0.0
 11
4.2545279491
 21
2.277508964
 31
0.0
  0
LINE
  5
9E
330
1F
100
AcDbEntity
  8
0
  6
CONTINUOUS
 62
     7
100
AcDbLine
 10
4.4907484216
 20
2.277508964
 30
0.0
 11
4.6679137759
 21
2.277508964
 31
0.0
  0
LINE
  5
9F
330
1F
100
AcDbEntity
  8
0
  6
CONTINUOUS
 62
     7
100
AcDbLine
 10
4.6679137759
 20
3.0452254995
 30
0.0
 11
4.6875586141
 21
3.0452254995
 31
0.0
  0
LINE
  5
A0
330
1F
100
AcDbEntity
  8
0
  6
CONTINUOUS
 62
     7
100
AcDbLine
 10
4.6875586141
 20
3.0452254995
 30
0.0
 11
4.6875586141
 21
3.043687731
 31
0.0
  0
LINE
  5
A1
330
1F
100
AcDbEntity
  8
0
  6
CONTINUOUS
 62
     7
100
AcDbLine
 10
4.6875586141
 20
3.043687731
 30
0.0
 11
4.6875988153
 21
3.043687731
 31
0.0
  0
LINE
  5
A2
330
1F
100
AcDbEntity
  8
0
  6
CONTINUOUS
 62
     7
100
AcDbLine
 10
4.6875988153
 20
3.043687731
 30
0.0
 11
4.6875988153
 21
2.7969627705
 31
0.0
  0
LINE
  5
A3
330
1F
100
AcDbEntity
  8
0
  6
CONTINUOUS
 62
     7
100
AcDbLine
 10
4.6875988153
 20
2.525771693
 30
0.0
 11
4.6875988153
 21
2.279916916
 31
0.0
  0
LINE
  5
A4
330
1F
100
AcDbEntity
  8
0
  6
CONTINUOUS
 62
     7
100
AcDbLine
 10
4.6875988153
 20
2.279916916
 30
0.0
 11
4.6875586141
 21
2.279916916
 31
0.0
  0
LINE
  5
A5
330
1F
100
AcDbEntity
  8
0
  6
CONTINUOUS
 62
     7
100
AcDbLine
 10
4.6875586141
 20
2.279916916
 30
0.0
 11
4.6875586141
 21
2.277508964
 31
0.0
  0
LINE
  5
A6
330
1F
100
AcDbEntity
  8
0
  6
CONTINUOUS
 62
     7
100
AcDbLine
 10
4.6875586141
 20
2.277508964
 30
0.0
 11
4.6679137759
 21
2.277508964
 31
0.0
  0
LINE
  5
A7
330
1F
100
AcDbEntity
  8
0
  6
CONTINUOUS
 62
     7
100
AcDbLine
 10
4.0576775554
 20
2.278789948
 30
0.0
 11
4.0576775554
 21
2.525771693
 31
0.0
  0
LINE
  5
A8
330
1F
100
AcDbEntity
  8
0
  6
CONTINUOUS
 62
     7
100
AcDbLine
 10
4.0576775554
 20
2.7969627705
 30
0.0
 11
4.0576775554
 21
3.0439587615
 31
0.0
  0
LINE
  5
A9
330
1F
100
AcDbEntity
  8
0
  6
CONTINUOUS
 62
     7
100
AcDbLine
 10
4.0576775554
 20
3.0439587615
 30
0.0
 11
4.0576794223
 21
3.0439587615
 31
0.0
  0
LINE
  5
AA
330
1F
100
AcDbEntity
  8
0
  6
CONTINUOUS
 62
     7
100
AcDbLine
 10
4.0576794223
 20
3.0439587615
 30
0.0
 11
4.0576794223
 21
3.0452254995
 31
0.0
  0
LINE
  5
AB
330
1F
100
AcDbEntity
  8
0
  6
CONTINUOUS
 62
     7
100
AcDbLine
 10
4.0576789982
 20
2.277508964
 30
0.0
 11
4.0576789982
 21
2.278789948
 31
0.0
  0
LINE
  5
AC
330
1F
100
AcDbEntity
  8
0
  6
CONTINUOUS
 62
     7
100
AcDbLine
 10
4.0576789982
 20
2.278789948
 30
0.0
 11
4.0576775554
 21
2.278789948
 31
0.0
  0
LINE
  5
AD
330
1F
100
AcDbEntity
  8
0
  6
CONTINUOUS
 62
     7
100
AcDbLine
 10
4.0576794223
 20
3.0452254995
 30
0.0
 11
4.0773625948
 21
3.0452254995
 31
0.0
  0
LINE
  5
AE
330
1F
100
AcDbEntity
  8
0
  6
CONTINUOUS
 62
     7
100
AcDbLine
 10
4.0773625948
 20
2.277508964
 30
0.0
 11
4.0576789982
 21
2.277508964
 31
0.0
  0
ARC
  5
AF
330
1F
100
AcDbEntity
  8
0
  6
CONTINUOUS
 62
     7
100
AcDbCircle
 10
4.0970476341
 20
3.1830207751
 30
0.0
 40
0.0393700787401574
100
AcDbArc
 50
90.0
 51
180.0
  0
LINE
  5
B0
330
1F
100
AcDbEntity
  8
0
  6
CONTINUOUS
 62
     7
100
AcDbLine
 10
4.0970476341
 20
3.2223908538
 30
0.0
 11
4.6482287365
 21
3.2223908538
 31
0.0
  0
ARC
  5
B1
330
1F
100
AcDbEntity
  8
0
  6
CONTINUOUS
 62
     7
100
AcDbCircle
 10
4.6482287365
 20
3.1830207751
 30
0.0
 40
0.0393700787401574
100
AcDbArc
 50
0.0
 51
90.0
  0
LINE
  5
B2
330
1F
100
AcDbEntity
  8
0
  6
CONTINUOUS
 62
     7
100
AcDbLine
 10
4.0576775554
 20
3.0452254995
 30
0.0
 11
4.0576794223
 21
3.0452254995
 31
0.0
  0
LINE
  5
B3
330
1F
100
AcDbEntity
  8
0
  6
CONTINUOUS
 62
     7
100
AcDbLine
 10
4.0576775554
 20
3.0452254995
 30
0.0
 11
4.0576775554
 21
3.1830207751
 31
0.0
  0
LINE
  5
B4
330
1F
100
AcDbEntity
  8
0
  6
CONTINUOUS
 62
     7
100
AcDbLine
 10
4.6875988153
 20
3.1830207751
 30
0.0
 11
4.6875988153
 21
3.0452254995
 31
0.0
  0
LINE
  5
B5
330
1F
100
AcDbEntity
  8
0
  6
CONTINUOUS
 62
     7
100
AcDbLine
 10
4.6875586141
 20
3.0452254995
 30
0.0
 11
4.6875988153
 21
3.0452254995
 31
0.0
  0
LINE
  5
B6
330
1F
100
AcDbEntity
  8
0
  6
CONTINUOUS
 62
     7
100
AcDbLine
 10
4.6875988153
 20
2.277508964
 30
0.0
 11
4.6875988153
 21
2.1397136884
 31
0.0
  0
ARC
  5
B7
330
1F
100
AcDbEntity
  8
0
  6
CONTINUOUS
 62
     7
100
AcDbCircle
 10
4.6482287365
 20
2.1397136884
 30
0.0
 40
0.0393700787401579
100
AcDbArc
 50
270.0
 51
0.0
  0
LINE
  5
B8
330
1F
100
AcDbEntity
  8
0
  6
CONTINUOUS
 62
     7
100
AcDbLine
 10
4.6482287365
 20
2.1003436097
 30
0.0
 11
4.4613978689
 21
2.1003436097
 31
0.0
  0
LINE
  5
B9
330
1F
100
AcDbEntity
  8
0
  6
CONTINUOUS
 62
     7
100
AcDbLine
 10
4.2838785018
 20
2.1003436097
 30
0.0
 11
4.0970476341
 21
2.1003436097
 31
0.0
  0
ARC
  5
BA
330
1F
100
AcDbEntity
  8
0
  6
CONTINUOUS
 62
     7
100
AcDbCircle
 10
4.0970476341
 20
2.1397136884
 30
0.0
 40
0.0393700787401579
100
AcDbArc
 50
180.0
 51
270.0
  0
LINE
  5
BB
330
1F
100
AcDbEntity
  8
0
  6
CONTINUOUS
 62
     7
100
AcDbLine
 10
4.0576775554
 20
2.1397136884
 30
0.0
 11
4.0576775554
 21
2.277508964
 31
0.0
  0
LINE
  5
BC
330
1F
100
AcDbEntity
  8
0
  6
CONTINUOUS
 62
     7
100
AcDbLine
 10
4.0576775554
 20
2.277508964
 30
0.0
 11
4.0576789982
 21
2.277508964
 31
0.0
  0
LINE
  5
BD
330
1F
100
AcDbEntity
  8
0
  6
CONTINUOUS
 62
     7
100
AcDbLine
 10
4.6875586141
 20
2.277508964
 30
0.0
 11
4.6875988153
 21
2.277508964
 31
0.0
  0
LINE
  5
BE
330
1F
100
AcDbEntity
  8
0
  6
CONTINUOUS
 62
     7
100
AcDbLine
 10
4.6875988153
 20
2.277508964
 30
0.0
 11
4.6875988153
 21
2.279916916
 31
0.0
  0
LINE
  5
BF
330
1F
100
AcDbEntity
  8
0
  6
CONTINUOUS
 62
     7
100
AcDbLine
 10
4.6875988153
 20
3.043687731
 30
0.0
 11
4.6875988153
 21
3.0452254995
 31
0.0
  0
LINE
  5
C0
330
1F
100
AcDbEntity
  8
0
  6
CONTINUOUS
 62
     7
100
AcDbLine
 10
4.0576775554
 20
2.278789948
 30
0.0
 11
4.0576775554
 21
2.277508964
 31
0.0
  0
LINE
  5
C1
330
1F
100
AcDbEntity
  8
0
  6
CONTINUOUS
 62
     7
100
AcDbLine
 10
4.0576775554
 20
3.0452254995
 30
0.0
 11
4.0576775554
 21
3.0439587615
 31
0.0
  0
LINE
  5
C2
330
1F
100
AcDbEntity
  8
0
  6
PHANTOM
 62
     8
100
AcDbLine
 10
4.4120082641
 20
2.2891706893
 30
0.0
 11
4.4120082641
 21
2.1786616822
 31
0.0
  0
ARC
  5
C3
330
1F
100
AcDbEntity
  8
0
  6
PHANTOM
 62
     8
100
AcDbCircle
 10
4.4167580505
 20
2.2151318494
 30
0.0
 40
0.0741910390917953
100
AcDbArc
 50
4.215012918
 51
93.6706449461
  0
LWPOLYLINE
  5
C4
330
1F
100
AcDbEntity
  8
0
  6
PHANTOM
 62
     8
100
AcDbPolyline
 90
       11
 70
   128
 43
0.0
 10
4.4120082641
 20
2.1786616822
 10
4.4243259385
 20
2.179177826
 10
4.4363403109
 20
2.1807135483
 10
4.4477555475
 20
2.1832310345
 10
4.4582905674
 20
2.1866682957
 10
4.4676859634
 20
2.1909406952
 10
4.4757103896
 20
2.1959430322
 10
4.4821662581
 20
2.2015521328
 10
4.4868946039
 20
2.2076298821
 10
4.4897789996
 20
2.2140266258
 10
4.4907484216
 20
2.2205848549
  0
LINE
  5
C5
330
1F
100
AcDbEntity
  8
0
  6
PHANTOM
 62
     8
100
AcDbLine
 10
4.3332681066
 20
2.2891706893
 30
0.0
 11
4.4120082641
 21
2.2891706893
 31
0.0
  0
LINE
  5
C6
330
1F
100
AcDbEntity
  8
0
  6
PHANTOM
 62
     8
100
AcDbLine
 10
4.4120082641
 20
2.1786616822
 30
0.0
 11
4.3332681066
 21
2.1786616822
 31
0.0
  0
LINE
  5
C7
330
1F
100
AcDbEntity
  8
0
  6
PHANTOM
 62
     8
100
AcDbLine
 10
4.3332681066
 20
2.2891706893
 30
0.0
 11
4.3332681066
 21
2.1786616822
 31
0.0
  0
LWPOLYLINE
  5
C8
330
1F
100
AcDbEntity
  8
0
  6
PHANTOM
 62
     8
100
AcDbPolyline
 90
       11
 70
   128
 43
0.0
 10
4.2545279491
 20
2.2205848549
 10
4.2554973711
 20
2.2140266258
 10
4.2583817667
 20
2.2076298821
 10
4.2631101126
 20
2.2015521328
 10
4.269565981
 20
2.1959430322
 10
4.2775904073
 20
2.1909406952
 10
4.2869858033
 20
2.1866682957
 10
4.2975208231
 20
2.1832310345
 10
4.3089360598
 20
2.1807135483
 10
4.3209504322
 20
2.179177826
 10
4.3332681066
 20
2.1786616822
  0
ARC
  5
C9
330
1F
100
AcDbEntity
  8
0
  6
PHANTOM
 62
     8
100
AcDbCircle
 10
4.3285183202
 20
2.2151318494
 30
0.0
 40
0.0741910390917958
100
AcDbArc
 50
86.3293550539
 51
175.784987082
  0
LINE
  5
CA
330
1F
100
AcDbEntity
  8
0
  6
PHANTOM
 62
     8
100
AcDbLine
 10
4.4120082641
 20
2.119744815
 30
0.0
 11
4.4120082641
 21
2.1786616822
 31
0.0
  0
LWPOLYLINE
  5
CB
330
1F
100
AcDbEntity
  8
0
  6
PHANTOM
 62
     8
100
AcDbPolyline
 90
       11
 70
   128
 43
0.0
 10
4.4120082641
 20
2.119744815
 10
4.4243259385
 20
2.1202609588
 10
4.4363403109
 20
2.1217966811
 10
4.4477555475
 20
2.1243141673
 10
4.4582905674
 20
2.1277514285
 10
4.4676859634
 20
2.132023828
 10
4.4757103896
 20
2.1370261651
 10
4.4821662581
 20
2.1426352656
 10
4.4868946039
 20
2.1487130149
 10
4.4897789996
 20
2.1551097586
 10
4.4907484216
 20
2.1616679877
  0
LINE
  5
CC
330
1F
100
AcDbEntity
  8
0
  6
PHANTOM
 62
     8
100
AcDbLine
 10
4.3332681066
 20
2.1786616822
 30
0.0
 11
4.3332681066
 21
2.119744815
 31
0.0
  0
LWPOLYLINE
  5
CD
330
1F
100
AcDbEntity
  8
0
  6
PHANTOM
 62
     8
100
AcDbPolyline
 90
       11
 70
   128
 43
0.0
 10
4.2545279491
 20
2.1616679877
 10
4.2554973711
 20
2.1551097586
 10
4.2583817667
 20
2.1487130149
 10
4.2631101126
 20
2.1426352656
 10
4.269565981
 20
2.1370261651
 10
4.2775904073
 20
2.132023828
 10
4.2869858033
 20
2.1277514285
 10
4.2975208231
 20
2.1243141673
 10
4.3089360598
 20
2.1217966811
 10
4.3209504322
 20
2.1202609588
 10
4.3332681066
 20
2.119744815
  0
LINE
  5
CE
330
1F
100
AcDbEntity
  8
0
  6
PHANTOM
 62
     8
100
AcDbLine
 10
4.3332681066
 20
2.119744815
 30
0.0
 11
4.4120082641
 21
2.119744815
 31
0.0
  0
LINE
  5
CF
330
1F
100
AcDbEntity
  8
0
  6
PHANTOM
 62
     8
100
AcDbLine
 10
4.4120082641
 20
2.2891706893
 30
0.0
 11
4.4120082641
 21
2.743839972
 31
0.0
  0
LINE
  5
D0
330
1F
100
AcDbEntity
  8
0
  6
PHANTOM
 62
     8
100
AcDbLine
 10
4.3332681066
 20
2.743839972
 30
0.0
 11
4.3332681066
 21
2.2891706893
 31
0.0
  0
LINE
  5
D1
330
1F
100
AcDbEntity
  8
0
  6
PHANTOM
 62
     8
100
AcDbLine
 10
4.3332681066
 20
2.119744815
 30
0.0
 11
4.3332681066
 21
2.0829278302
 31
0.0
  0
LINE
  5
D2
330
1F
100
AcDbEntity
  8
0
  6
PHANTOM
 62
     8
100
AcDbLine
 10
4.4120082641
 20
2.119744815
 30
0.0
 11
4.4120082641
 21
2.0829278302
 31
0.0
  0
ARC
  5
D3
330
1F
100
AcDbEntity
  8
0
  6
PHANTOM
 62
     8
100
AcDbCircle
 10
4.3726381853
 20
2.6613672317
 30
0.0
 40
0.0921554208109129
100
AcDbArc
 50
63.4667664126
 51
116.5332335874
  0
LINE
  5
D4
330
1F
100
AcDbEntity
  8
0
  6
PHANTOM
 62
     8
100
AcDbLine
 10
4.6679137759
 20
2.277508964
 30
0.0
 11
4.6679137759
 21
2.4870150762
 31
0.0
  0
LINE
  5
D5
330
1F
100
AcDbEntity
  8
0
  6
PHANTOM
 62
     8
100
AcDbLine
 10
4.6679137759
 20
2.8357193873
 30
0.0
 11
4.6679137759
 21
3.0452254995
 31
0.0
  0
LINE
  5
D6
330
1F
100
AcDbEntity
  8
0
  6
PHANTOM
 62
     8
100
AcDbLine
 10
4.0773625948
 20
3.0452254995
 30
0.0
 11
4.0773625948
 21
2.8357193873
 31
0.0
  0
LINE
  5
D7
330
1F
100
AcDbEntity
  8
0
  6
PHANTOM
 62
     8
100
AcDbLine
 10
4.0773625948
 20
2.4870150762
 30
0.0
 11
4.0773625948
 21
2.277508964
 31
0.0
  0
LINE
  5
D8
330
1F
100
AcDbEntity
  8
0
  6
CONTINUOUS
 62
     7
100
AcDbLine
 10
6.5903099149
 20
2.3184585726
 30
0.0
 11
6.6099949543
 21
2.3184585726
 31
0.0
  0
LINE
  5
D9
330
1F
100
AcDbEntity
  8
0
  6
CONTINUOUS
 62
     7
100
AcDbLine
 10
6.6099949543
 20
3.0042758909
 30
0.0
 11
6.5903099149
 21
3.0042758909
 31
0.0
  0
ARC
  5
DA
330
1F
100
AcDbEntity
  8
0
  6
CONTINUOUS
 62
     7
100
AcDbCircle
 10
6.8029083401
 20
2.4129282597
 30
0.0
 40
0.0196850393700787
100
AcDbArc
 50
180.0
 51
270.0
  0
ARC
  5
DB
330
1F
100
AcDbEntity
  8
0
  6
CONTINUOUS
 62
     7
100
AcDbCircle
 10
6.8029083401
 20
2.9098062038
 30
0.0
 40
0.0196850393700787
100
AcDbArc
 50
90.0
 51
180.0
  0
LINE
  5
DC
330
1F
100
AcDbEntity
  8
0
  6
CONTINUOUS
 62
     7
100
AcDbLine
 10
6.6748260964
 20
2.4251467593
 30
0.0
 11
6.6839473273
 21
2.4251467593
 31
0.0
  0
LINE
  5
DD
330
1F
100
AcDbEntity
  8
0
  6
CONTINUOUS
 62
     7
100
AcDbLine
 10
6.6839473273
 20
2.4251467593
 30
0.0
 11
6.6926721196
 21
2.4446941548
 31
0.0
  0
LINE
  5
DE
330
1F
100
AcDbEntity
  8
0
  6
CONTINUOUS
 62
     7
100
AcDbLine
 10
6.6572323094
 20
2.4494098176
 30
0.0
 11
6.6748260964
 21
2.4251467593
 31
0.0
  0
LINE
  5
DF
330
1F
100
AcDbEntity
  8
0
  6
CONTINUOUS
 62
     7
100
AcDbLine
 10
6.6256134979
 20
2.4251467593
 30
0.0
 11
6.6347347289
 21
2.4251467593
 31
0.0
  0
LINE
  5
E0
330
1F
100
AcDbEntity
  8
0
  6
CONTINUOUS
 62
     7
100
AcDbLine
 10
6.6099949543
 20
2.4466858194
 30
0.0
 11
6.6256134979
 21
2.4251467593
 31
0.0
  0
LINE
  5
E1
330
1F
100
AcDbEntity
  8
0
  6
CONTINUOUS
 62
     7
100
AcDbLine
 10
6.5095945141
 20
2.4494098176
 30
0.0
 11
6.5115697574
 21
2.4466858194
 31
0.0
  0
LINE
  5
E2
330
1F
100
AcDbEntity
  8
0
  6
CONTINUOUS
 62
     7
100
AcDbLine
 10
6.4870969336
 20
2.4251467593
 30
0.0
 11
6.4973575751
 21
2.4481351364
 31
0.0
  0
LINE
  5
E3
330
1F
100
AcDbEntity
  8
0
  6
CONTINUOUS
 62
     7
100
AcDbLine
 10
6.4779757027
 20
2.4251467593
 30
0.0
 11
6.4870969336
 21
2.4251467593
 31
0.0
  0
LINE
  5
E4
330
1F
100
AcDbEntity
  8
0
  6
CONTINUOUS
 62
     7
100
AcDbLine
 10
6.4287631042
 20
2.4251467593
 30
0.0
 11
6.4378843352
 21
2.4251467593
 31
0.0
  0
LINE
  5
E5
330
1F
100
AcDbEntity
  8
0
  6
CONTINUOUS
 62
     7
100
AcDbLine
 10
6.4111693173
 20
2.4494098176
 30
0.0
 11
6.4287631042
 21
2.4251467593
 31
0.0
  0
LINE
  5
E6
330
1F
100
AcDbEntity
  8
0
  6
CONTINUOUS
 62
     7
100
AcDbLine
 10
6.3795505058
 20
2.4251467593
 30
0.0
 11
6.3886717368
 21
2.4251467593
 31
0.0
  0
LINE
  5
E7
330
1F
100
AcDbEntity
  8
0
  6
CONTINUOUS
 62
     7
100
AcDbLine
 10
6.4481449766
 20
2.4481351364
 30
0.0
 11
6.4603819157
 21
2.4494098176
 31
0.0
  0
LINE
  5
E8
330
1F
100
AcDbEntity
  8
0
  6
CONTINUOUS
 62
     7
100
AcDbLine
 10
6.6449953703
 20
2.4481351364
 30
0.0
 11
6.6572323094
 21
2.4494098176
 31
0.0
  0
LINE
  5
E9
330
1F
100
AcDbEntity
  8
0
  6
CONTINUOUS
 62
     7
100
AcDbLine
 10
6.3989323782
 20
2.4481351364
 30
0.0
 11
6.4111693173
 21
2.4494098176
 31
0.0
  0
LINE
  5
EA
330
1F
100
AcDbEntity
  8
0
  6
CONTINUOUS
 62
     7
100
AcDbLine
 10
6.4973575751
 20
2.4481351364
 30
0.0
 11
6.5095945141
 21
2.4494098176
 31
0.0
  0
LINE
  5
EB
330
1F
100
AcDbEntity
  8
0
  6
CONTINUOUS
 62
     7
100
AcDbLine
 10
6.7714122771
 20
2.4307814198
 30
0.0
 11
6.7832233008
 21
2.4350802808
 31
0.0
  0
LINE
  5
EC
330
1F
100
AcDbEntity
  8
0
  6
CONTINUOUS
 62
     7
100
AcDbLine
 10
6.3501524346
 20
2.4481802046
 30
0.0
 11
6.3619567189
 21
2.4494098176
 31
0.0
  0
LINE
  5
ED
330
1F
100
AcDbEntity
  8
0
  6
CONTINUOUS
 62
     7
100
AcDbLine
 10
6.5115697574
 20
2.3470904809
 30
0.0
 11
6.5168009028
 21
2.3418593355
 31
0.0
  0
LINE
  5
EE
330
1F
100
AcDbEntity
  8
0
  6
CONTINUOUS
 62
     7
100
AcDbLine
 10
7.5650227266
 20
2.3435104773
 30
0.0
 11
7.563937326
 21
2.342526441
 31
0.0
  0
LINE
  5
EF
330
1F
100
AcDbEntity
  8
0
  6
CONTINUOUS
 62
     7
100
AcDbLine
 10
7.6168244374
 20
2.2841914957
 30
0.0
 11
7.6182830315
 21
2.2855138734
 31
0.0
  0
ARC
  5
F0
330
1F
100
AcDbEntity
  8
0
  6
CONTINUOUS
 62
     7
100
AcDbCircle
 10
7.6115357263
 20
2.2900249902
 30
0.0
 40
0.0078740157480324
100
AcDbArc
 50
222.6939426894
 51
312.1958024713
  0
ARC
  5
F1
330
1F
100
AcDbEntity
  8
0
  6
CONTINUOUS
 62
     7
100
AcDbCircle
 10
7.5692260371
 20
2.3366929464
 30
0.0
 40
0.0078740157480312
100
AcDbArc
 50
132.1958024713
 51
221.6976622532
  0
LINE
  5
F2
330
1F
100
AcDbEntity
  8
0
  6
CONTINUOUS
 62
     7
100
AcDbLine
 10
7.6136929644
 20
3.0109382192
 30
0.0
 11
7.6129941352
 21
3.0117090338
 31
0.0
  0
LINE
  5
F3
330
1F
100
AcDbEntity
  8
0
  6
CONTINUOUS
 62
     7
100
AcDbLine
 10
7.55465919
 20
2.9588219223
 30
0.0
 11
7.5546684988
 21
2.9588116546
 31
0.0
  0
ARC
  5
F4
330
1F
100
AcDbEntity
  8
0
  6
CONTINUOUS
 62
     7
100
AcDbCircle
 10
7.6071606407
 20
3.0064203227
 30
0.0
 40
0.0078740157480314
100
AcDbArc
 50
42.1958024713
 51
132.1958024713
  0
ARC
  5
F5
330
1F
100
AcDbEntity
  8
0
  6
CONTINUOUS
 62
     7
100
AcDbCircle
 10
7.5604926845
 20
2.9641106335
 30
0.0
 40
0.0078740157480312
100
AcDbArc
 50
132.1958024713
 51
222.1958024713
  0
ARC
  5
F6
330
1F
100
AcDbEntity
  8
0
  6
CONTINUOUS
 62
     7
100
AcDbCircle
 10
7.4800736945
 20
2.6898594144
 30
0.0
 40
0.0078740157480319
100
AcDbArc
 50
0.0
 51
90.0
  0
ARC
  5
F7
330
1F
100
AcDbEntity
  8
0
  6
CONTINUOUS
 62
     7
100
AcDbCircle
 10
7.4800736945
 20
2.6328750491
 30
0.0
 40
0.0078740157480315
100
AcDbArc
 50
270.0
 51
0.0
  0
LINE
  5
F8
330
1F
100
AcDbEntity
  8
0
  6
CONTINUOUS
 62
     7
100
AcDbLine
 10
7.4682626708
 20
2.6250010334
 30
0.0
 11
7.4800736945
 21
2.6250010334
 31
0.0
  0
LINE
  5
F9
330
1F
100
AcDbEntity
  8
0
  6
CONTINUOUS
 62
     7
100
AcDbLine
 10
7.4800736945
 20
2.6977334301
 30
0.0
 11
7.4682626708
 21
2.6977334301
 31
0.0
  0
LINE
  5
FA
330
1F
100
AcDbEntity
  8
0
  6
CONTINUOUS
 62
     7
100
AcDbLine
 10
6.5168009028
 20
2.980875128
 30
0.0
 11
6.5115697574
 21
2.9756439826
 31
0.0
  0
LINE
  5
FB
330
1F
100
AcDbEntity
  8
0
  6
CONTINUOUS
 62
     7
100
AcDbLine
 10
7.4682626708
 20
2.8329650439
 30
0.0
 11
7.4879477102
 21
2.8329650439
 31
0.0
  0
LINE
  5
FC
330
1F
100
AcDbEntity
  8
0
  6
CONTINUOUS
 62
     7
100
AcDbLine
 10
7.4879477102
 20
2.4908417511
 30
0.0
 11
7.4682626708
 21
2.4908417511
 31
0.0
  0
LINE
  5
FD
330
1F
100
AcDbEntity
  8
0
  6
CONTINUOUS
 62
     7
100
AcDbLine
 10
6.7714122771
 20
2.8842935242
 30
0.0
 11
6.7517272378
 21
2.9285838046
 31
0.0
  0
LINE
  5
FE
330
1F
100
AcDbEntity
  8
0
  6
CONTINUOUS
 62
     7
100
AcDbLine
 10
6.7714122771
 20
2.6803392741
 30
0.0
 11
6.7714122771
 21
2.8842935242
 31
0.0
  0
LINE
  5
FF
330
1F
100
AcDbEntity
  8
0
  6
CONTINUOUS
 62
     7
100
AcDbLine
 10
6.7517272378
 20
2.6360489937
 30
0.0
 11
6.7714122771
 21
2.6803392741
 31
0.0
  0
LINE
  5
100
330
1F
100
AcDbEntity
  8
0
  6
CONTINUOUS
 62
     7
100
AcDbLine
 10
6.7517272378
 20
2.6360489937
 30
0.0
 11
6.7517272378
 21
2.6221147765
 31
0.0
  0
LINE
  5
101
330
1F
100
AcDbEntity
  8
0
  6
CONTINUOUS
 62
     7
100
AcDbLine
 10
6.6926721196
 20
2.6221147765
 30
0.0
 11
6.7517272378
 21
2.6221147765
 31
0.0
  0
LINE
  5
102
330
1F
100
AcDbEntity
  8
0
  6
CONTINUOUS
 62
     7
100
AcDbLine
 10
6.6926721196
 20
2.6221147765
 30
0.0
 11
6.6926721196
 21
2.9425180218
 31
0.0
  0
LINE
  5
103
330
1F
100
AcDbEntity
  8
0
  6
CONTINUOUS
 62
     7
100
AcDbLine
 10
6.6926721196
 20
2.9425180218
 30
0.0
 11
6.7517272378
 21
2.9425180218
 31
0.0
  0
LINE
  5
104
330
1F
100
AcDbEntity
  8
0
  6
CONTINUOUS
 62
     7
100
AcDbLine
 10
6.7517272378
 20
2.9425180218
 30
0.0
 11
6.7517272378
 21
2.9285838046
 31
0.0
  0
LINE
  5
105
330
1F
100
AcDbEntity
  8
0
  6
CONTINUOUS
 62
     7
100
AcDbLine
 10
6.7714122771
 20
2.5710233355
 30
0.0
 11
6.7517272378
 21
2.6098876339
 31
0.0
  0
LINE
  5
106
330
1F
100
AcDbEntity
  8
0
  6
CONTINUOUS
 62
     7
100
AcDbLine
 10
6.7714122771
 20
2.3920554274
 30
0.0
 11
6.7714122771
 21
2.5710233355
 31
0.0
  0
LINE
  5
107
330
1F
100
AcDbEntity
  8
0
  6
CONTINUOUS
 62
     7
100
AcDbLine
 10
6.7517272378
 20
2.353191129
 30
0.0
 11
6.7714122771
 21
2.3920554274
 31
0.0
  0
LINE
  5
108
330
1F
100
AcDbEntity
  8
0
  6
CONTINUOUS
 62
     7
100
AcDbLine
 10
6.7517272378
 20
2.353191129
 30
0.0
 11
6.7517272378
 21
2.3409639864
 31
0.0
  0
LINE
  5
109
330
1F
100
AcDbEntity
  8
0
  6
CONTINUOUS
 62
     7
100
AcDbLine
 10
6.6926721196
 20
2.3409639864
 30
0.0
 11
6.7517272378
 21
2.3409639864
 31
0.0
  0
LINE
  5
10A
330
1F
100
AcDbEntity
  8
0
  6
CONTINUOUS
 62
     7
100
AcDbLine
 10
6.6926721196
 20
2.3409639864
 30
0.0
 11
6.6926721196
 21
2.6221147765
 31
0.0
  0
LINE
  5
10B
330
1F
100
AcDbEntity
  8
0
  6
CONTINUOUS
 62
     7
100
AcDbLine
 10
6.7517272378
 20
2.6221147765
 30
0.0
 11
6.7517272378
 21
2.6098876339
 31
0.0
  0
LINE
  5
10C
330
1F
100
AcDbEntity
  8
0
  6
CONTINUOUS
 62
     7
100
AcDbLine
 10
6.5903099149
 20
2.3189482953
 30
0.0
 11
6.5903099149
 21
2.3184585726
 31
0.0
  0
LINE
  5
10D
330
1F
100
AcDbEntity
  8
0
  6
CONTINUOUS
 62
     7
100
AcDbLine
 10
6.5903099149
 20
2.5403810013
 30
0.0
 11
6.5903099149
 21
2.3272139473
 31
0.0
  0
LINE
  5
10E
330
1F
100
AcDbEntity
  8
0
  6
CONTINUOUS
 62
     7
100
AcDbLine
 10
6.5903099149
 20
2.878743709
 30
0.0
 11
6.5903099149
 21
2.5609685339
 31
0.0
  0
LINE
  5
10F
330
1F
100
AcDbEntity
  8
0
  6
CONTINUOUS
 62
     7
100
AcDbLine
 10
6.5903099149
 20
3.0042758909
 30
0.0
 11
6.5903099149
 21
2.8951218184
 31
0.0
  0
LINE
  5
110
330
1F
100
AcDbEntity
  8
0
  6
CONTINUOUS
 62
     7
100
AcDbLine
 10
6.6099949543
 20
3.0042758909
 30
0.0
 11
6.6099949543
 21
2.3184585726
 31
0.0
  0
LINE
  5
111
330
1F
100
AcDbEntity
  8
0
  6
CONTINUOUS
 62
     7
100
AcDbLine
 10
6.7714122771
 20
2.6803392741
 30
0.0
 11
6.7714122771
 21
2.5710233355
 31
0.0
  0
LWPOLYLINE
  5
112
330
1F
100
AcDbEntity
  8
0
  6
CONTINUOUS
 62
     7
100
AcDbPolyline
 90
        3
 70
   128
 43
0.0
 10
6.5115697574
 20
2.3771412342
 10
6.5204466343
 20
2.3585592492
 10
6.5312547968
 20
2.3403254267
  0
LINE
  5
113
330
1F
100
AcDbEntity
  8
0
  6
CONTINUOUS
 62
     7
100
AcDbLine
 10
6.5115697574
 20
2.3771412342
 30
0.0
 11
6.5115697574
 21
2.4904537144
 31
0.0
  0
LWPOLYLINE
  5
114
330
1F
100
AcDbEntity
  8
0
  6
CONTINUOUS
 62
     7
100
AcDbPolyline
 90
        3
 70
   128
 43
0.0
 10
6.5312547968
 20
2.5272695219
 10
6.5204915972
 20
2.5091193058
 10
6.5115697574
 20
2.4904537144
  0
LINE
  5
115
330
1F
100
AcDbEntity
  8
0
  6
CONTINUOUS
 62
     7
100
AcDbLine
 10
6.5312547968
 20
2.5272695219
 30
0.0
 11
6.5312547968
 21
2.5486466532
 31
0.0
  0
LINE
  5
116
330
1F
100
AcDbEntity
  8
0
  6
CONTINUOUS
 62
     7
100
AcDbLine
 10
6.5312547968
 20
2.5486466532
 30
0.0
 11
6.5903099149
 21
2.5486466532
 31
0.0
  0
LINE
  5
117
330
1F
100
AcDbEntity
  8
0
  6
CONTINUOUS
 62
     7
100
AcDbLine
 10
6.5903099149
 20
2.3189482953
 30
0.0
 11
6.5903099149
 21
2.3272139473
 31
0.0
  0
LINE
  5
118
330
1F
100
AcDbEntity
  8
0
  6
CONTINUOUS
 62
     7
100
AcDbLine
 10
6.5312547968
 20
2.3189482953
 30
0.0
 11
6.5903099149
 21
2.3189482953
 31
0.0
  0
LINE
  5
119
330
1F
100
AcDbEntity
  8
0
  6
CONTINUOUS
 62
     7
100
AcDbLine
 10
6.5312547968
 20
2.3189482953
 30
0.0
 11
6.5312547968
 21
2.3403254267
 31
0.0
  0
LINE
  5
11A
330
1F
100
AcDbEntity
  8
0
  6
CONTINUOUS
 62
     7
100
AcDbLine
 10
6.5903099149
 20
2.5403810013
 30
0.0
 11
6.5903099149
 21
2.5486466532
 31
0.0
  0
LWPOLYLINE
  5
11B
330
1F
100
AcDbEntity
  8
0
  6
CONTINUOUS
 62
     7
100
AcDbPolyline
 90
        3
 70
   128
 43
0.0
 10
6.5115697574
 20
2.6353967911
 10
6.5204466343
 20
2.6076960117
 10
6.5312547968
 20
2.5805142498
  0
LINE
  5
11C
330
1F
100
AcDbEntity
  8
0
  6
CONTINUOUS
 62
     7
100
AcDbLine
 10
6.5115697574
 20
2.6353967911
 30
0.0
 11
6.5115697574
 21
2.8043154518
 31
0.0
  0
LWPOLYLINE
  5
11D
330
1F
100
AcDbEntity
  8
0
  6
CONTINUOUS
 62
     7
100
AcDbPolyline
 90
        3
 70
   128
 43
0.0
 10
6.5312547968
 20
2.8591979932
 10
6.5204915972
 20
2.832140866
 10
6.5115697574
 20
2.8043154518
  0
LINE
  5
11E
330
1F
100
AcDbEntity
  8
0
  6
CONTINUOUS
 62
     7
100
AcDbLine
 10
6.5312547968
 20
2.8591979932
 30
0.0
 11
6.5312547968
 21
2.8910655897
 31
0.0
  0
LINE
  5
11F
330
1F
100
AcDbEntity
  8
0
  6
CONTINUOUS
 62
     7
100
AcDbLine
 10
6.5312547968
 20
2.8910655897
 30
0.0
 11
6.5903099149
 21
2.8910655897
 31
0.0
  0
LINE
  5
120
330
1F
100
AcDbEntity
  8
0
  6
CONTINUOUS
 62
     7
100
AcDbLine
 10
6.5903099149
 20
2.878743709
 30
0.0
 11
6.5903099149
 21
2.8910655897
 31
0.0
  0
LINE
  5
121
330
1F
100
AcDbEntity
  8
0
  6
CONTINUOUS
 62
     7
100
AcDbLine
 10
6.5312547968
 20
2.5486466532
 30
0.0
 11
6.5312547968
 21
2.5805142498
 31
0.0
  0
LINE
  5
122
330
1F
100
AcDbEntity
  8
0
  6
CONTINUOUS
 62
     7
100
AcDbLine
 10
6.5903099149
 20
2.5486466532
 30
0.0
 11
6.5903099149
 21
2.5609685339
 31
0.0
  0
LINE
  5
123
330
1F
100
AcDbEntity
  8
0
  6
CONTINUOUS
 62
     7
100
AcDbLine
 10
6.5115697574
 20
2.4904537144
 30
0.0
 11
6.5115697574
 21
2.6353967911
 31
0.0
  0
LINE
  5
124
330
1F
100
AcDbEntity
  8
0
  6
CONTINUOUS
 62
     7
100
AcDbLine
 10
7.4682626708
 20
3.1830207751
 30
0.0
 11
7.4682626708
 21
2.966485342
 31
0.0
  0
LINE
  5
125
330
1F
100
AcDbEntity
  8
0
  6
CONTINUOUS
 62
     7
100
AcDbLine
 10
7.4682626708
 20
2.966485342
 30
0.0
 11
7.4288925921
 21
2.966485342
 31
0.0
  0
ARC
  5
126
330
1F
100
AcDbEntity
  8
0
  6
CONTINUOUS
 62
     7
100
AcDbCircle
 10
7.4288925921
 20
3.1830207751
 30
0.0
 40
0.0393700787401574
100
AcDbArc
 50
0.0
 51
90.0
  0
LINE
  5
127
330
1F
100
AcDbEntity
  8
0
  6
CONTINUOUS
 62
     7
100
AcDbLine
 10
7.4288925921
 20
2.8877451845
 30
0.0
 11
7.4682626708
 21
2.8877451845
 31
0.0
  0
LINE
  5
128
330
1F
100
AcDbEntity
  8
0
  6
CONTINUOUS
 62
     7
100
AcDbLine
 10
7.4682626708
 20
2.8877451845
 30
0.0
 11
7.4682626708
 21
2.434989279
 31
0.0
  0
LINE
  5
129
330
1F
100
AcDbEntity
  8
0
  6
CONTINUOUS
 62
     7
100
AcDbLine
 10
7.4682626708
 20
2.434989279
 30
0.0
 11
7.4288925921
 21
2.434989279
 31
0.0
  0
LINE
  5
12A
330
1F
100
AcDbEntity
  8
0
  6
CONTINUOUS
 62
     7
100
AcDbLine
 10
7.4629880804
 20
2.3562290489
 30
0.0
 11
7.4682626708
 21
2.3562290489
 31
0.0
  0
LINE
  5
12B
330
1F
100
AcDbEntity
  8
0
  6
CONTINUOUS
 62
     7
100
AcDbLine
 10
7.4682626708
 20
2.3562290489
 30
0.0
 11
7.4682626708
 21
2.1397136884
 31
0.0
  0
LINE
  5
12C
330
1F
100
AcDbEntity
  8
0
  6
CONTINUOUS
 62
     7
100
AcDbLine
 10
7.4288925921
 20
2.3562491215
 30
0.0
 11
7.4629880804
 21
2.3562491215
 31
0.0
  0
LINE
  5
12D
330
1F
100
AcDbEntity
  8
0
  6
CONTINUOUS
 62
     7
100
AcDbLine
 10
7.4629880804
 20
2.3562491215
 30
0.0
 11
7.4629880804
 21
2.3562290489
 31
0.0
  0
ARC
  5
12E
330
1F
100
AcDbEntity
  8
0
  6
CONTINUOUS
 62
     7
100
AcDbCircle
 10
7.4288925921
 20
2.1397136884
 30
0.0
 40
0.0393700787401579
100
AcDbArc
 50
270.0
 51
0.0
  0
LINE
  5
12F
330
1F
100
AcDbEntity
  8
0
  6
CONTINUOUS
 62
     7
100
AcDbLine
 10
6.8225933795
 20
3.1830207751
 30
0.0
 11
6.8225933795
 21
3.2223908538
 31
0.0
  0
LINE
  5
130
330
1F
100
AcDbEntity
  8
0
  6
CONTINUOUS
 62
     7
100
AcDbLine
 10
6.8225933795
 20
3.2223908538
 30
0.0
 11
7.4288925921
 21
3.2223908538
 31
0.0
  0
LINE
  5
131
330
1F
100
AcDbEntity
  8
0
  6
CONTINUOUS
 62
     7
100
AcDbLine
 10
7.3344044031
 20
2.277508964
 30
0.0
 11
7.3344044031
 21
2.3562491215
 31
0.0
  0
LINE
  5
132
330
1F
100
AcDbEntity
  8
0
  6
CONTINUOUS
 62
     7
100
AcDbLine
 10
6.8225933795
 20
2.277508964
 30
0.0
 11
6.8225933795
 21
2.1397136884
 31
0.0
  0
LINE
  5
133
330
1F
100
AcDbEntity
  8
0
  6
CONTINUOUS
 62
     7
100
AcDbLine
 10
7.3344044031
 20
2.277508964
 30
0.0
 11
6.8225933795
 21
2.277508964
 31
0.0
  0
LINE
  5
134
330
1F
100
AcDbEntity
  8
0
  6
CONTINUOUS
 62
     7
100
AcDbLine
 10
7.3344044031
 20
2.3562491215
 30
0.0
 11
7.4288925921
 21
2.3562491215
 31
0.0
  0
LINE
  5
135
330
1F
100
AcDbEntity
  8
0
  6
CONTINUOUS
 62
     7
100
AcDbLine
 10
7.3344044031
 20
2.966485342
 30
0.0
 11
7.3344044031
 21
3.0452254995
 31
0.0
  0
LINE
  5
136
330
1F
100
AcDbEntity
  8
0
  6
CONTINUOUS
 62
     7
100
AcDbLine
 10
6.8225933795
 20
3.0452254995
 30
0.0
 11
7.3344044031
 21
3.0452254995
 31
0.0
  0
LINE
  5
137
330
1F
100
AcDbEntity
  8
0
  6
CONTINUOUS
 62
     7
100
AcDbLine
 10
6.8225933795
 20
3.1830207751
 30
0.0
 11
6.8225933795
 21
3.0452254995
 31
0.0
  0
LINE
  5
138
330
1F
100
AcDbEntity
  8
0
  6
CONTINUOUS
 62
     7
100
AcDbLine
 10
7.4288925921
 20
2.966485342
 30
0.0
 11
7.3344044031
 21
2.966485342
 31
0.0
  0
LINE
  5
139
330
1F
100
AcDbEntity
  8
0
  6
CONTINUOUS
 62
     7
100
AcDbLine
 10
7.3344044031
 20
2.434989279
 30
0.0
 11
7.3344044031
 21
2.8877451845
 31
0.0
  0
LINE
  5
13A
330
1F
100
AcDbEntity
  8
0
  6
CONTINUOUS
 62
     7
100
AcDbLine
 10
7.4288925921
 20
2.434989279
 30
0.0
 11
7.3344044031
 21
2.434989279
 31
0.0
  0
LINE
  5
13B
330
1F
100
AcDbEntity
  8
0
  6
CONTINUOUS
 62
     7
100
AcDbLine
 10
7.3344044031
 20
2.8877451845
 30
0.0
 11
7.4288925921
 21
2.8877451845
 31
0.0
  0
LINE
  5
13C
330
1F
100
AcDbEntity
  8
0
  6
CONTINUOUS
 62
     7
100
AcDbLine
 10
7.3973965291
 20
2.8903769594
 30
0.0
 11
7.3973965291
 21
2.9650123637
 31
0.0
  0
LINE
  5
13D
330
1F
100
AcDbEntity
  8
0
  6
CONTINUOUS
 62
     7
100
AcDbLine
 10
7.3973965291
 20
2.8903769594
 30
0.0
 11
7.377718045
 21
2.8903769594
 31
0.0
  0
LINE
  5
13E
330
1F
100
AcDbEntity
  8
0
  6
CONTINUOUS
 62
     7
100
AcDbLine
 10
7.377718045
 20
2.9650123637
 30
0.0
 11
7.3973965291
 21
2.9650123637
 31
0.0
  0
LINE
  5
13F
330
1F
100
AcDbEntity
  8
0
  6
CONTINUOUS
 62
     7
100
AcDbLine
 10
7.3973965291
 20
2.3587063548
 30
0.0
 11
7.3973965291
 21
2.4340614733
 31
0.0
  0
LINE
  5
140
330
1F
100
AcDbEntity
  8
0
  6
CONTINUOUS
 62
     7
100
AcDbLine
 10
7.3777114897
 20
2.4340614733
 30
0.0
 11
7.3973965291
 21
2.4340614733
 31
0.0
  0
LINE
  5
141
330
1F
100
AcDbEntity
  8
0
  6
CONTINUOUS
 62
     7
100
AcDbLine
 10
7.3973965291
 20
2.3587063548
 30
0.0
 11
7.3777114897
 21
2.3587063548
 31
0.0
  0
LINE
  5
142
330
1F
100
AcDbEntity
  8
0
  6
CONTINUOUS
 62
     7
100
AcDbLine
 10
6.8225933795
 20
2.1003436097
 30
0.0
 11
6.8225933795
 21
2.1397136884
 31
0.0
  0
LINE
  5
143
330
1F
100
AcDbEntity
  8
0
  6
CONTINUOUS
 62
     7
100
AcDbLine
 10
7.4288925921
 20
2.1003436097
 30
0.0
 11
6.8225933795
 21
2.1003436097
 31
0.0
  0
LINE
  5
144
330
1F
100
AcDbEntity
  8
0
  6
CONTINUOUS
 62
     7
100
AcDbLine
 10
6.8225933795
 20
3.043687731
 30
0.0
 11
6.8265303874
 21
3.043687731
 31
0.0
  0
LINE
  5
145
330
1F
100
AcDbEntity
  8
0
  6
CONTINUOUS
 62
     7
100
AcDbLine
 10
6.8265303874
 20
3.0436505088
 30
0.0
 11
6.8265303874
 21
3.043687731
 31
0.0
  0
LINE
  5
146
330
1F
100
AcDbEntity
  8
0
  6
CONTINUOUS
 62
     7
100
AcDbLine
 10
7.3186563716
 20
3.0436505088
 30
0.0
 11
6.8265303874
 21
3.0436505088
 31
0.0
  0
LINE
  5
147
330
1F
100
AcDbEntity
  8
0
  6
CONTINUOUS
 62
     7
100
AcDbLine
 10
7.3186563716
 20
3.0436505088
 30
0.0
 11
7.3186563716
 21
2.9650123637
 31
0.0
  0
LINE
  5
148
330
1F
100
AcDbEntity
  8
0
  6
CONTINUOUS
 62
     7
100
AcDbLine
 10
7.3186563716
 20
2.8903769594
 30
0.0
 11
7.3186563716
 21
2.4340614733
 31
0.0
  0
LINE
  5
149
330
1F
100
AcDbEntity
  8
0
  6
CONTINUOUS
 62
     7
100
AcDbLine
 10
7.3186563716
 20
2.3587063548
 30
0.0
 11
7.3186563716
 21
2.279916916
 31
0.0
  0
LINE
  5
14A
330
1F
100
AcDbEntity
  8
0
  6
CONTINUOUS
 62
     7
100
AcDbLine
 10
7.3186563716
 20
2.279916916
 30
0.0
 11
6.8225933795
 21
2.279916916
 31
0.0
  0
LINE
  5
14B
330
1F
100
AcDbEntity
  8
0
  6
CONTINUOUS
 62
     7
100
AcDbLine
 10
7.3777114897
 20
2.4340614733
 30
0.0
 11
7.3186563716
 21
2.4340614733
 31
0.0
  0
LINE
  5
14C
330
1F
100
AcDbEntity
  8
0
  6
CONTINUOUS
 62
     7
100
AcDbLine
 10
7.377718045
 20
2.8903769594
 30
0.0
 11
7.3186563716
 21
2.8903769594
 31
0.0
  0
LINE
  5
14D
330
1F
100
AcDbEntity
  8
0
  6
CONTINUOUS
 62
     7
100
AcDbLine
 10
7.377718045
 20
2.9650123637
 30
0.0
 11
7.3186563716
 21
2.9650123637
 31
0.0
  0
LINE
  5
14E
330
1F
100
AcDbEntity
  8
0
  6
CONTINUOUS
 62
     7
100
AcDbLine
 10
7.3777114897
 20
2.3587063548
 30
0.0
 11
7.3186563716
 21
2.3587063548
 31
0.0
  0
LINE
  5
14F
330
1F
100
AcDbEntity
  8
0
  6
CONTINUOUS
 62
     7
100
AcDbLine
 10
6.8213359587
 20
2.277508964
 30
0.0
 11
6.8029083401
 21
2.277508964
 31
0.0
  0
LINE
  5
150
330
1F
100
AcDbEntity
  8
0
  6
CONTINUOUS
 62
     7
100
AcDbLine
 10
6.8029083401
 20
2.277508964
 30
0.0
 11
6.8029083401
 21
3.0452254995
 31
0.0
  0
LINE
  5
151
330
1F
100
AcDbEntity
  8
0
  6
CONTINUOUS
 62
     7
100
AcDbLine
 10
6.8029083401
 20
3.0452254995
 30
0.0
 11
6.8213359587
 21
3.0452254995
 31
0.0
  0
LINE
  5
152
330
1F
100
AcDbEntity
  8
0
  6
CONTINUOUS
 62
     7
100
AcDbLine
 10
6.8213359587
 20
3.0452254995
 30
0.0
 11
6.8213359587
 21
3.043687731
 31
0.0
  0
LINE
  5
153
330
1F
100
AcDbEntity
  8
0
  6
CONTINUOUS
 62
     7
100
AcDbLine
 10
6.8213359587
 20
2.279916916
 30
0.0
 11
6.8213359587
 21
2.277508964
 31
0.0
  0
LINE
  5
154
330
1F
100
AcDbEntity
  8
0
  6
CONTINUOUS
 62
     7
100
AcDbLine
 10
6.8213359587
 20
3.043687731
 30
0.0
 11
6.8225933795
 21
3.043687731
 31
0.0
  0
LINE
  5
155
330
1F
100
AcDbEntity
  8
0
  6
CONTINUOUS
 62
     7
100
AcDbLine
 10
6.8225933795
 20
2.279916916
 30
0.0
 11
6.8213359587
 21
2.279916916
 31
0.0
  0
LINE
  5
156
330
1F
100
AcDbEntity
  8
0
  6
CONTINUOUS
 62
     7
100
AcDbLine
 10
7.4485776315
 20
2.966485342
 30
0.0
 11
7.4485776315
 21
2.8877451845
 31
0.0
  0
LINE
  5
157
330
1F
100
AcDbEntity
  8
0
  6
CONTINUOUS
 62
     7
100
AcDbLine
 10
7.3344044031
 20
2.8877451845
 30
0.0
 11
7.3344044031
 21
2.8903769594
 31
0.0
  0
LINE
  5
158
330
1F
100
AcDbEntity
  8
0
  6
CONTINUOUS
 62
     7
100
AcDbLine
 10
7.3344044031
 20
2.9650123637
 30
0.0
 11
7.3344044031
 21
2.966485342
 31
0.0
  0
LINE
  5
159
330
1F
100
AcDbEntity
  8
0
  6
CONTINUOUS
 62
     7
100
AcDbLine
 10
7.4485776315
 20
2.434989279
 30
0.0
 11
7.4485776315
 21
2.3562491215
 31
0.0
  0
LINE
  5
15A
330
1F
100
AcDbEntity
  8
0
  6
CONTINUOUS
 62
     7
100
AcDbLine
 10
7.3344044031
 20
2.4340614733
 30
0.0
 11
7.3344044031
 21
2.434989279
 31
0.0
  0
LINE
  5
15B
330
1F
100
AcDbEntity
  8
0
  6
CONTINUOUS
 62
     7
100
AcDbLine
 10
7.3344044031
 20
2.3562491215
 30
0.0
 11
7.3344044031
 21
2.3587063548
 31
0.0
  0
LINE
  5
15C
330
1F
100
AcDbEntity
  8
0
  6
CONTINUOUS
 62
     7
100
AcDbLine
 10
6.8225933795
 20
3.0452254995
 30
0.0
 11
6.8213359587
 21
3.0452254995
 31
0.0
  0
LINE
  5
15D
330
1F
100
AcDbEntity
  8
0
  6
CONTINUOUS
 62
     7
100
AcDbLine
 10
6.8265303874
 20
3.043687731
 30
0.0
 11
6.8265303874
 21
3.0452254995
 31
0.0
  0
LINE
  5
15E
330
1F
100
AcDbEntity
  8
0
  6
CONTINUOUS
 62
     7
100
AcDbLine
 10
6.8265303874
 20
2.277508964
 30
0.0
 11
6.8265303874
 21
2.279916916
 31
0.0
  0
LINE
  5
15F
330
1F
100
AcDbEntity
  8
0
  6
CONTINUOUS
 62
     7
100
AcDbLine
 10
6.8213359587
 20
2.277508964
 30
0.0
 11
6.8225933795
 21
2.277508964
 31
0.0
  0
LWPOLYLINE
  5
160
330
1F
100
AcDbEntity
  8
0
  6
CONTINUOUS
 62
     7
100
AcDbPolyline
 90
        3
 70
   128
 43
0.0
 10
6.5115697574
 20
2.9196227887
 10
6.5204466343
 20
2.9105039943
 10
6.5312547968
 20
2.9015560548
  0
LINE
  5
161
330
1F
100
AcDbEntity
  8
0
  6
CONTINUOUS
 62
     7
100
AcDbLine
 10
6.5115697574
 20
2.8043154518
 30
0.0
 11
6.5115697574
 21
2.9196227887
 31
0.0
  0
LINE
  5
162
330
1F
100
AcDbEntity
  8
0
  6
CONTINUOUS
 62
     7
100
AcDbLine
 10
6.7832233008
 20
2.6613672317
 30
0.0
 11
6.7832233008
 21
2.9098062038
 31
0.0
  0
LINE
  5
163
330
1F
100
AcDbEntity
  8
0
  6
CONTINUOUS
 62
     7
100
AcDbLine
 10
6.7832233008
 20
2.4129282597
 30
0.0
 11
6.7832233008
 21
2.6613672317
 31
0.0
  0
LWPOLYLINE
  5
164
330
1F
100
AcDbEntity
  8
0
  6
CONTINUOUS
 62
     7
100
AcDbPolyline
 90
        3
 70
   128
 43
0.0
 10
6.5312547968
 20
2.993295703
 10
6.5204915972
 20
2.9843887919
 10
6.5115697574
 20
2.9752289691
  0
LINE
  5
165
330
1F
100
AcDbEntity
  8
0
  6
CONTINUOUS
 62
     7
100
AcDbLine
 10
6.5312547968
 20
2.993295703
 30
0.0
 11
6.5312547968
 21
3.0037861682
 31
0.0
  0
LINE
  5
166
330
1F
100
AcDbEntity
  8
0
  6
CONTINUOUS
 62
     7
100
AcDbLine
 10
6.5312547968
 20
3.0037861682
 30
0.0
 11
6.5903099149
 21
3.0037861682
 31
0.0
  0
LINE
  5
167
330
1F
100
AcDbEntity
  8
0
  6
CONTINUOUS
 62
     7
100
AcDbLine
 10
6.5903099149
 20
2.8910655897
 30
0.0
 11
6.5903099149
 21
2.8951218184
 31
0.0
  0
LINE
  5
168
330
1F
100
AcDbEntity
  8
0
  6
CONTINUOUS
 62
     7
100
AcDbLine
 10
6.5312547968
 20
2.8910655897
 30
0.0
 11
6.5312547968
 21
2.9015560548
 31
0.0
  0
LINE
  5
169
330
1F
100
AcDbEntity
  8
0
  6
CONTINUOUS
 62
     7
100
AcDbLine
 10
6.5115697574
 20
2.9196227887
 30
0.0
 11
6.5115697574
 21
2.9752289691
 31
0.0
  0
LWPOLYLINE
  5
16A
330
1F
100
AcDbEntity
  8
0
  6
CONTINUOUS
 62
     7
100
AcDbPolyline
 90
        3
 70
   128
 43
0.0
 10
6.6622973127
 20
2.8732267314
 10
6.6630296196
 20
2.8748797539
 10
6.6725432504
 20
2.8963397198
  0
ARC
  5
16B
330
1F
100
AcDbEntity
  8
0
  6
CONTINUOUS
 62
     7
100
AcDbCircle
 10
45.3062024242
 20
6.8663813109
 30
0.0
 40
38.83710663005822
100
AcDbArc
 50
185.8671892631
 51
186.1508575389
  0
LINE
  5
16C
330
1F
100
AcDbEntity
  8
0
  6
CONTINUOUS
 62
     7
100
AcDbLine
 10
6.6926721196
 20
2.5816285842
 30
0.0
 11
6.6622973127
 21
2.8732267314
 31
0.0
  0
LINE
  5
16D
330
1F
100
AcDbEntity
  8
0
  6
CONTINUOUS
 62
     7
100
AcDbLine
 10
6.6725432504
 20
2.8963397198
 30
0.0
 11
6.681681539
 21
2.8963397198
 31
0.0
  0
ARC
  5
16E
330
1F
100
AcDbEntity
  8
0
  6
CONTINUOUS
 62
     7
100
AcDbCircle
 10
-24.156011713
 20
-0.6942390831
 30
0.0
 40
31.04602359789306
100
AcDbArc
 50
6.4635670038
 51
6.6413147311
  0
ARC
  5
16F
330
1F
100
AcDbEntity
  8
0
  6
CONTINUOUS
 62
     7
100
AcDbCircle
 10
41.6700274367
 20
6.4880910312
 30
0.0
 40
35.23026586623246
100
AcDbArc
 50
185.8515132648
 51
186.6223935932
  0
LINE
  5
170
330
1F
100
AcDbEntity
  8
0
  6
CONTINUOUS
 62
     7
100
AcDbLine
 10
6.6233306519
 20
2.8963397198
 30
0.0
 11
6.6324689406
 21
2.8963397198
 31
0.0
  0
ARC
  5
171
330
1F
100
AcDbEntity
  8
0
  6
CONTINUOUS
 62
     7
100
AcDbCircle
 10
-28.0503572353
 20
-1.1312084706
 30
0.0
 40
34.91589288522038
100
AcDbArc
 50
5.8459946427
 51
6.6238128286
  0
LINE
  5
172
330
1F
100
AcDbEntity
  8
0
  6
CONTINUOUS
 62
     7
100
AcDbLine
 10
6.6324440011
 20
2.8965539091
 30
0.0
 11
6.6233086336
 21
2.8965539091
 31
0.0
  0
LWPOLYLINE
  5
173
330
1F
100
AcDbEntity
  8
0
  6
CONTINUOUS
 62
     7
100
AcDbPolyline
 90
        3
 70
   128
 43
0.0
 10
6.6500358224
 20
2.8721877417
 10
6.6493586932
 20
2.8731260994
 10
6.6324440011
 20
2.8965539091
  0
LWPOLYLINE
  5
174
330
1F
100
AcDbEntity
  8
0
  6
CONTINUOUS
 62
     7
100
AcDbPolyline
 90
        3
 70
   128
 43
0.0
 10
6.6324689406
 20
2.8963397198
 10
6.6492638541
 20
2.8730569677
 10
6.6500603736
 20
2.8719520502
  0
LINE
  5
175
330
1F
100
AcDbEntity
  8
0
  6
CONTINUOUS
 62
     7
100
AcDbLine
 10
6.6926721196
 20
2.4628792878
 30
0.0
 11
6.6500603736
 21
2.8719520502
 31
0.0
  0
LINE
  5
176
330
1F
100
AcDbEntity
  8
0
  6
CONTINUOUS
 62
     7
100
AcDbLine
 10
6.6572323094
 20
2.4494098176
 30
0.0
 11
6.6130847142
 21
2.8732267314
 31
0.0
  0
LWPOLYLINE
  5
177
330
1F
100
AcDbEntity
  8
0
  6
CONTINUOUS
 62
     7
100
AcDbPolyline
 90
        3
 70
   128
 43
0.0
 10
6.6130847142
 20
2.8732267314
 10
6.6138170212
 20
2.8748797539
 10
6.6233306519
 20
2.8963397198
  0
LWPOLYLINE
  5
178
330
1F
100
AcDbEntity
  8
0
  6
CONTINUOUS
 62
     7
100
AcDbPolyline
 90
        3
 70
   128
 43
0.0
 10
6.6233086336
 20
2.8965539091
 10
6.61371115
 20
2.8749299963
 10
6.613060163
 20
2.8734624229
  0
ARC
  5
179
330
1F
100
AcDbEntity
  8
0
  6
CONTINUOUS
 62
     7
100
AcDbCircle
 10
-31.3435365231
 20
-1.4753523298
 30
0.0
 40
38.17804317190618
100
AcDbArc
 50
5.8639137934
 51
6.2167490889
  0
ARC
  5
17A
330
1F
100
AcDbEntity
  8
0
  6
CONTINUOUS
 62
     7
100
AcDbCircle
 10
37.7696219967
 20
6.0522542176
 30
0.0
 40
31.3545080312645
100
AcDbArc
 50
186.3914231588
 51
186.6428810085
  0
LINE
  5
17B
330
1F
100
AcDbEntity
  8
0
  6
CONTINUOUS
 62
     7
100
AcDbLine
 10
6.6449953703
 20
2.4481351364
 30
0.0
 11
6.6099949543
 21
2.7841391303
 31
0.0
  0
LINE
  5
17C
330
1F
100
AcDbEntity
  8
0
  6
CONTINUOUS
 62
     7
100
AcDbLine
 10
6.6449953703
 20
2.4481351364
 30
0.0
 11
6.6347347289
 21
2.4251467593
 31
0.0
  0
LWPOLYLINE
  5
17D
330
1F
100
AcDbEntity
  8
0
  6
CONTINUOUS
 62
     7
100
AcDbPolyline
 90
        3
 70
   128
 43
0.0
 10
6.4848311453
 20
2.8963397198
 10
6.5016260588
 20
2.8730569677
 10
6.5024225783
 20
2.8719520502
  0
LINE
  5
17E
330
1F
100
AcDbEntity
  8
0
  6
CONTINUOUS
 62
     7
100
AcDbLine
 10
6.5115697574
 20
2.7841391303
 30
0.0
 11
6.5024225783
 21
2.8719520502
 31
0.0
  0
LWPOLYLINE
  5
17F
330
1F
100
AcDbEntity
  8
0
  6
CONTINUOUS
 62
     7
100
AcDbPolyline
 90
        3
 70
   128
 43
0.0
 10
6.5023980271
 20
2.8721877417
 10
6.5017208979
 20
2.8731260994
 10
6.4848062058
 20
2.8965539091
  0
ARC
  5
180
330
1F
100
AcDbEntity
  8
0
  6
CONTINUOUS
 62
     7
100
AcDbCircle
 10
-25.676000617
 20
-0.8464714162
 30
0.0
 40
32.37788959830014
100
AcDbArc
 50
6.2153795433
 51
6.6381034525
  0
LWPOLYLINE
  5
181
330
1F
100
AcDbEntity
  8
0
  6
CONTINUOUS
 62
     7
100
AcDbPolyline
 90
        3
 70
   128
 43
0.0
 10
6.4756708383
 20
2.8965539091
 10
6.4660733547
 20
2.8749299963
 10
6.4654223677
 20
2.8734624229
  0
LINE
  5
182
330
1F
100
AcDbEntity
  8
0
  6
CONTINUOUS
 62
     7
100
AcDbLine
 10
6.5095945141
 20
2.4494098176
 30
0.0
 11
6.465446919
 21
2.8732267314
 31
0.0
  0
LWPOLYLINE
  5
183
330
1F
100
AcDbEntity
  8
0
  6
CONTINUOUS
 62
     7
100
AcDbPolyline
 90
        3
 70
   128
 43
0.0
 10
6.465446919
 20
2.8732267314
 10
6.4661792259
 20
2.8748797539
 10
6.4756928567
 20
2.8963397198
  0
ARC
  5
184
330
1F
100
AcDbEntity
  8
0
  6
CONTINUOUS
 62
     7
100
AcDbCircle
 10
43.4019904634
 20
6.6879033264
 30
0.0
 40
37.1204446299865
100
AcDbArc
 50
185.8625408537
 51
186.3817835516
  0
LINE
  5
185
330
1F
100
AcDbEntity
  8
0
  6
CONTINUOUS
 62
     7
100
AcDbLine
 10
6.4756928567
 20
2.8963397198
 30
0.0
 11
6.4848311453
 21
2.8963397198
 31
0.0
  0
ARC
  5
186
330
1F
100
AcDbEntity
  8
0
  6
CONTINUOUS
 62
     7
100
AcDbCircle
 10
-28.247207629
 20
-1.1312084706
 30
0.0
 40
34.9158928852541
100
AcDbArc
 50
5.8459946427
 51
6.6238128286
  0
LWPOLYLINE
  5
187
330
1F
100
AcDbEntity
  8
0
  6
CONTINUOUS
 62
     7
100
AcDbPolyline
 90
        3
 70
   128
 43
0.0
 10
6.4356185469
 20
2.8963397198
 10
6.4524134604
 20
2.8730569677
 10
6.4532099799
 20
2.8719520502
  0
LINE
  5
188
330
1F
100
AcDbEntity
  8
0
  6
CONTINUOUS
 62
     7
100
AcDbLine
 10
6.4973575751
 20
2.4481351364
 30
0.0
 11
6.4532099799
 21
2.8719520502
 31
0.0
  0
LWPOLYLINE
  5
189
330
1F
100
AcDbEntity
  8
0
  6
CONTINUOUS
 62
     7
100
AcDbPolyline
 90
        3
 70
   128
 43
0.0
 10
6.4531854287
 20
2.8721877417
 10
6.4525082995
 20
2.8731260994
 10
6.4355936074
 20
2.8965539091
  0
ARC
  5
18A
330
1F
100
AcDbEntity
  8
0
  6
CONTINUOUS
 62
     7
100
AcDbCircle
 10
41.473177043
 20
6.4880910312
 30
0.0
 40
35.23026586621778
100
AcDbArc
 50
185.8515132648
 51
186.6223935932
  0
LINE
  5
18B
330
1F
100
AcDbEntity
  8
0
  6
CONTINUOUS
 62
     7
100
AcDbLine
 10
6.4264802582
 20
2.8963397198
 30
0.0
 11
6.4356185469
 21
2.8963397198
 31
0.0
  0
LINE
  5
18C
330
1F
100
AcDbEntity
  8
0
  6
CONTINUOUS
 62
     7
100
AcDbLine
 10
6.4355936074
 20
2.8965539091
 30
0.0
 11
6.4264582399
 21
2.8965539091
 31
0.0
  0
LINE
  5
18D
330
1F
100
AcDbEntity
  8
0
  6
CONTINUOUS
 62
     7
100
AcDbLine
 10
6.4779757027
 20
2.4251467593
 30
0.0
 11
6.4603819157
 21
2.4494098176
 31
0.0
  0
LINE
  5
18E
330
1F
100
AcDbEntity
  8
0
  6
CONTINUOUS
 62
     7
100
AcDbLine
 10
6.4603819157
 20
2.4494098176
 30
0.0
 11
6.4162343205
 21
2.8732267314
 31
0.0
  0
LWPOLYLINE
  5
18F
330
1F
100
AcDbEntity
  8
0
  6
CONTINUOUS
 62
     7
100
AcDbPolyline
 90
        3
 70
   128
 43
0.0
 10
6.4162343205
 20
2.8732267314
 10
6.4169677116
 20
2.8748822009
 10
6.4264802582
 20
2.8963397198
  0
LINE
  5
190
330
1F
100
AcDbEntity
  8
0
  6
CONTINUOUS
 62
     7
100
AcDbLine
 10
6.4481449766
 20
2.4481351364
 30
0.0
 11
6.4039973814
 21
2.8719520502
 31
0.0
  0
LINE
  5
191
330
1F
100
AcDbEntity
  8
0
  6
CONTINUOUS
 62
     7
100
AcDbLine
 10
6.4481449766
 20
2.4481351364
 30
0.0
 11
6.4378843352
 21
2.4251467593
 31
0.0
  0
ARC
  5
192
330
1F
100
AcDbEntity
  8
0
  6
CONTINUOUS
 62
     7
100
AcDbCircle
 10
-28.2964202275
 20
-1.1312084706
 30
0.0
 40
34.91589288524823
100
AcDbArc
 50
5.8459946427
 51
6.6238128286
  0
LWPOLYLINE
  5
193
330
1F
100
AcDbEntity
  8
0
  6
CONTINUOUS
 62
     7
100
AcDbPolyline
 90
        3
 70
   128
 43
0.0
 10
6.3864059484
 20
2.8963397198
 10
6.4032007452
 20
2.8730571296
 10
6.4039973814
 20
2.8719520502
  0
ARC
  5
194
330
1F
100
AcDbEntity
  8
0
  6
CONTINUOUS
 62
     7
100
AcDbCircle
 10
41.4239644445
 20
6.4880910312
 30
0.0
 40
35.2302658662224
100
AcDbArc
 50
185.8515132648
 51
186.6223935932
  0
LINE
  5
195
330
1F
100
AcDbEntity
  8
0
  6
CONTINUOUS
 62
     7
100
AcDbLine
 10
6.3772676598
 20
2.8963397198
 30
0.0
 11
6.3864059484
 21
2.8963397198
 31
0.0
  0
LINE
  5
196
330
1F
100
AcDbEntity
  8
0
  6
CONTINUOUS
 62
     7
100
AcDbLine
 10
6.3863810089
 20
2.8965539091
 30
0.0
 11
6.3772456415
 21
2.8965539091
 31
0.0
  0
LINE
  5
197
330
1F
100
AcDbEntity
  8
0
  6
CONTINUOUS
 62
     7
100
AcDbLine
 10
6.4111693173
 20
2.4494098176
 30
0.0
 11
6.3670217221
 21
2.8732267314
 31
0.0
  0
LWPOLYLINE
  5
198
330
1F
100
AcDbEntity
  8
0
  6
CONTINUOUS
 62
     7
100
AcDbPolyline
 90
        3
 70
   128
 43
0.0
 10
6.3670217221
 20
2.8732267314
 10
6.367754029
 20
2.8748797539
 10
6.3772676598
 20
2.8963397198
  0
LWPOLYLINE
  5
199
330
1F
100
AcDbEntity
  8
0
  6
CONTINUOUS
 62
     7
100
AcDbPolyline
 90
        3
 70
   128
 43
0.0
 10
6.3772456415
 20
2.8965539091
 10
6.3676481579
 20
2.8749299963
 10
6.3669971709
 20
2.8734624229
  0
ARC
  5
19A
330
1F
100
AcDbEntity
  8
0
  6
CONTINUOUS
 62
     7
100
AcDbCircle
 10
38.9024137976
 20
6.2103082608
 30
0.0
 40
32.74238971557932
100
AcDbArc
 50
186.1775499428
 51
186.6384821713
  0
LINE
  5
19B
330
1F
100
AcDbEntity
  8
0
  6
CONTINUOUS
 62
     7
100
AcDbLine
 10
6.3501524346
 20
2.7832419621
 30
0.0
 11
6.3501524346
 21
2.6869058649
 31
0.0
  0
ARC
  5
19C
330
1F
100
AcDbEntity
  8
0
  6
CONTINUOUS
 62
     7
100
AcDbCircle
 10
-30.1151898052
 20
-1.3203525023
 30
0.0
 40
36.69551297086712
100
AcDbArc
 50
5.8583643492
 51
6.4207160816
  0
LINE
  5
19D
330
1F
100
AcDbEntity
  8
0
  6
CONTINUOUS
 62
     7
100
AcDbLine
 10
6.3989323782
 20
2.4481351364
 30
0.0
 11
6.354784783
 21
2.8719520502
 31
0.0
  0
LINE
  5
19E
330
1F
100
AcDbEntity
  8
0
  6
CONTINUOUS
 62
     7
100
AcDbLine
 10
6.3989323782
 20
2.4481351364
 30
0.0
 11
6.3886717368
 21
2.4251467593
 31
0.0
  0
LINE
  5
19F
330
1F
100
AcDbEntity
  8
0
  6
CONTINUOUS
 62
     7
100
AcDbLine
 10
6.3501524346
 20
2.8783769894
 30
0.0
 11
6.3501524346
 21
2.7832419621
 31
0.0
  0
LINE
  5
1A0
330
1F
100
AcDbEntity
  8
0
  6
CONTINUOUS
 62
     7
100
AcDbLine
 10
6.3501524346
 20
2.8783769894
 30
0.0
 11
6.354784783
 21
2.8719520502
 31
0.0
  0
LINE
  5
1A1
330
1F
100
AcDbEntity
  8
0
  6
CONTINUOUS
 62
     7
100
AcDbLine
 10
6.3795505058
 20
2.4251467593
 30
0.0
 11
6.3619567189
 21
2.4494098176
 31
0.0
  0
LINE
  5
1A2
330
1F
100
AcDbEntity
  8
0
  6
CONTINUOUS
 62
     7
100
AcDbLine
 10
6.3619567189
 20
2.4494098176
 30
0.0
 11
6.3501524346
 21
2.5627309464
 31
0.0
  0
LINE
  5
1A3
330
1F
100
AcDbEntity
  8
0
  6
CONTINUOUS
 62
     7
100
AcDbLine
 10
6.3501524346
 20
2.6869058649
 30
0.0
 11
6.3501524346
 21
2.5627309464
 31
0.0
  0
ARC
  5
1A4
330
1F
100
AcDbEntity
  8
0
  6
CONTINUOUS
 62
     7
100
AcDbCircle
 10
72.6910641678
 20
8.5043952542
 30
0.0
 40
66.16070601351718
100
AcDbArc
 50
184.8924545082
 51
185.0109546267
  0
LINE
  5
1A5
330
1F
100
AcDbEntity
  8
0
  6
CONTINUOUS
 62
     7
100
AcDbLine
 10
6.7832233008
 20
2.6572191354
 30
0.0
 11
6.7714122771
 21
2.7706049621
 31
0.0
  0
LWPOLYLINE
  5
1A6
330
1F
100
AcDbEntity
  8
0
  6
CONTINUOUS
 62
     7
100
AcDbPolyline
 90
        3
 70
   128
 43
0.0
 10
6.7714122771
 20
2.8906743953
 10
6.7760262321
 20
2.8889856195
 10
6.7832233008
 20
2.8863511039
  0
LWPOLYLINE
  5
1A7
330
1F
100
AcDbEntity
  8
0
  6
CONTINUOUS
 62
     7
100
AcDbPolyline
 90
        3
 70
   128
 43
0.0
 10
6.7832233008
 20
2.8865747933
 10
6.7760978703
 20
2.8891805261
 10
6.7714122771
 20
2.8908938714
  0
LINE
  5
1A8
330
1F
100
AcDbEntity
  8
0
  6
CONTINUOUS
 62
     7
100
AcDbLine
 10
6.7517272378
 20
2.9442250964
 30
0.0
 11
6.7714122771
 21
2.9496510785
 31
0.0
  0
LINE
  5
1A9
330
1F
100
AcDbEntity
  8
0
  6
CONTINUOUS
 62
     7
100
AcDbLine
 10
6.7714122771
 20
2.9496510785
 30
0.0
 11
6.7714122771
 21
2.8842935242
 31
0.0
  0
LINE
  5
1AA
330
1F
100
AcDbEntity
  8
0
  6
CONTINUOUS
 62
     7
100
AcDbLine
 10
6.7832233008
 20
2.538469839
 30
0.0
 11
6.7714122771
 21
2.6518556658
 31
0.0
  0
ARC
  5
1AB
330
1F
100
AcDbEntity
  8
0
  6
CONTINUOUS
 62
     7
100
AcDbCircle
 10
-12.7857495462
 20
-0.0394811727
 30
0.0
 40
19.72924598494934
100
AcDbArc
 50
7.3081457376
 51
7.573018412
  0
LINE
  5
1AC
330
1F
100
AcDbEntity
  8
0
  6
CONTINUOUS
 62
     7
100
AcDbLine
 10
6.4039973814
 20
2.8719520502
 30
0.0
 11
6.4162343205
 21
2.8732267314
 31
0.0
  0
LINE
  5
1AD
330
1F
100
AcDbEntity
  8
0
  6
CONTINUOUS
 62
     7
100
AcDbLine
 10
6.4162097693
 20
2.8734624229
 30
0.0
 11
6.4039728302
 21
2.8721877417
 31
0.0
  0
LINE
  5
1AE
330
1F
100
AcDbEntity
  8
0
  6
CONTINUOUS
 62
     7
100
AcDbLine
 10
6.6099949543
 20
2.8729048814
 30
0.0
 11
6.6130847142
 21
2.8732267314
 31
0.0
  0
LINE
  5
1AF
330
1F
100
AcDbEntity
  8
0
  6
CONTINUOUS
 62
     7
100
AcDbLine
 10
6.613060163
 20
2.8734624229
 30
0.0
 11
6.6099949543
 21
2.8731431303
 31
0.0
  0
LINE
  5
1B0
330
1F
100
AcDbEntity
  8
0
  6
CONTINUOUS
 62
     7
100
AcDbLine
 10
6.354784783
 20
2.8719520502
 30
0.0
 11
6.3670217221
 21
2.8732267314
 31
0.0
  0
LINE
  5
1B1
330
1F
100
AcDbEntity
  8
0
  6
CONTINUOUS
 62
     7
100
AcDbLine
 10
6.3669971709
 20
2.8734624229
 30
0.0
 11
6.3547602318
 21
2.8721877417
 31
0.0
  0
LINE
  5
1B2
330
1F
100
AcDbEntity
  8
0
  6
CONTINUOUS
 62
     7
100
AcDbLine
 10
6.4532099799
 20
2.8719520502
 30
0.0
 11
6.465446919
 21
2.8732267314
 31
0.0
  0
LINE
  5
1B3
330
1F
100
AcDbEntity
  8
0
  6
CONTINUOUS
 62
     7
100
AcDbLine
 10
6.4654223677
 20
2.8734624229
 30
0.0
 11
6.4531854287
 21
2.8721877417
 31
0.0
  0
LINE
  5
1B4
330
1F
100
AcDbEntity
  8
0
  6
CONTINUOUS
 62
     7
100
AcDbLine
 10
6.5024225783
 20
2.8719520502
 30
0.0
 11
6.5115697574
 21
2.8729048814
 31
0.0
  0
LINE
  5
1B5
330
1F
100
AcDbEntity
  8
0
  6
CONTINUOUS
 62
     7
100
AcDbLine
 10
6.5115697574
 20
2.8731431303
 30
0.0
 11
6.5023980271
 21
2.8721877417
 31
0.0
  0
LINE
  5
1B6
330
1F
100
AcDbEntity
  8
0
  6
CONTINUOUS
 62
     7
100
AcDbLine
 10
6.6500603736
 20
2.8719520502
 30
0.0
 11
6.6622973127
 21
2.8732267314
 31
0.0
  0
LINE
  5
1B7
330
1F
100
AcDbEntity
  8
0
  6
CONTINUOUS
 62
     7
100
AcDbLine
 10
6.7714122771
 20
2.9746374205
 30
0.0
 11
6.7517272378
 21
2.9800634025
 31
0.0
  0
LINE
  5
1B8
330
1F
100
AcDbEntity
  8
0
  6
CONTINUOUS
 62
     7
100
AcDbLine
 10
6.6926721196
 20
2.9817704771
 30
0.0
 11
6.7517272378
 21
2.9817704771
 31
0.0
  0
LINE
  5
1B9
330
1F
100
AcDbEntity
  8
0
  6
CONTINUOUS
 62
     7
100
AcDbLine
 10
6.7517272378
 20
2.9817704771
 30
0.0
 11
6.7517272378
 21
2.9800634025
 31
0.0
  0
LINE
  5
1BA
330
1F
100
AcDbEntity
  8
0
  6
CONTINUOUS
 62
     7
100
AcDbLine
 10
6.7517272378
 20
2.9442250964
 30
0.0
 11
6.7517272378
 21
2.9425180218
 31
0.0
  0
LINE
  5
1BB
330
1F
100
AcDbEntity
  8
0
  6
CONTINUOUS
 62
     7
100
AcDbLine
 10
6.7714122771
 20
2.9496510785
 30
0.0
 11
6.7714122771
 21
2.9746374205
 31
0.0
  0
LINE
  5
1BC
330
1F
100
AcDbEntity
  8
0
  6
CONTINUOUS
 62
     7
100
AcDbLine
 10
6.6926721196
 20
2.9425180218
 30
0.0
 11
6.6926721196
 21
2.9817704771
 31
0.0
  0
LINE
  5
1BD
330
1F
100
AcDbEntity
  8
0
  6
CONTINUOUS
 62
     7
100
AcDbLine
 10
6.681681539
 20
2.8963397198
 30
0.0
 11
6.6926721196
 21
2.8811065671
 31
0.0
  0
LINE
  5
1BE
330
1F
100
AcDbEntity
  8
0
  6
CONTINUOUS
 62
     7
100
AcDbLine
 10
6.3501524346
 20
2.5627309464
 30
0.0
 11
6.3501524346
 21
2.4481802046
 31
0.0
  0
LINE
  5
1BF
330
1F
100
AcDbEntity
  8
0
  6
CONTINUOUS
 62
     7
100
AcDbLine
 10
6.7714122771
 20
2.348097043
 30
0.0
 11
6.7517272378
 21
2.342671061
 31
0.0
  0
LINE
  5
1C0
330
1F
100
AcDbEntity
  8
0
  6
CONTINUOUS
 62
     7
100
AcDbLine
 10
6.7714122771
 20
2.3920554274
 30
0.0
 11
6.7714122771
 21
2.348097043
 31
0.0
  0
LWPOLYLINE
  5
1C1
330
1F
100
AcDbEntity
  8
0
  6
CONTINUOUS
 62
     7
100
AcDbPolyline
 90
        3
 70
   128
 43
0.0
 10
6.5312547968
 20
2.3294387605
 10
6.5204915972
 20
2.3383456716
 10
6.5169368284
 20
2.3419952611
  0
LINE
  5
1C2
330
1F
100
AcDbEntity
  8
0
  6
CONTINUOUS
 62
     7
100
AcDbLine
 10
6.5115697574
 20
2.3470904809
 30
0.0
 11
6.5115697574
 21
2.3771412342
 31
0.0
  0
LINE
  5
1C3
330
1F
100
AcDbEntity
  8
0
  6
CONTINUOUS
 62
     7
100
AcDbLine
 10
6.3501524346
 20
2.5793506505
 30
0.0
 11
6.302528868
 21
2.5491252523
 31
0.0
  0
LINE
  5
1C4
330
1F
100
AcDbEntity
  8
0
  6
CONTINUOUS
 62
     7
100
AcDbLine
 10
6.3501524346
 20
2.4863701746
 30
0.0
 11
5.802598484
 21
2.0974720645
 31
0.0
  0
LINE
  5
1C5
330
1F
100
AcDbEntity
  8
0
  6
CONTINUOUS
 62
     7
100
AcDbLine
 10
5.6812674658
 20
2.2891706893
 30
0.0
 11
6.3501524346
 21
2.6663798096
 31
0.0
  0
ARC
  5
1C6
330
1F
100
AcDbEntity
  8
0
  6
CONTINUOUS
 62
     7
100
AcDbCircle
 10
5.7570035738
 20
2.1616679877
 30
0.0
 40
0.0787401574803145
100
AcDbArc
 50
212.1694013819
 51
305.384129083
  0
LINE
  5
1C7
330
1F
100
AcDbEntity
  8
0
  6
CONTINUOUS
 62
     7
100
AcDbLine
 10
5.6903517922
 20
2.119744815
 30
0.0
 11
5.653293788
 21
2.1786616822
 31
0.0
  0
ARC
  5
1C8
330
1F
100
AcDbEntity
  8
0
  6
CONTINUOUS
 62
     7
100
AcDbCircle
 10
5.7199455696
 20
2.2205848549
 30
0.0
 40
0.0787401574803152
100
AcDbArc
 50
119.4202686318
 51
212.1694013819
  0
LINE
  5
1C9
330
1F
100
AcDbEntity
  8
0
  6
CONTINUOUS
 62
     7
100
AcDbLine
 10
7.4682626708
 20
2.8877451845
 30
0.0
 11
7.4682626708
 21
2.966485342
 31
0.0
  0
LINE
  5
1CA
330
1F
100
AcDbEntity
  8
0
  6
CONTINUOUS
 62
     7
100
AcDbLine
 10
7.4682626708
 20
2.3562290489
 30
0.0
 11
7.4682626708
 21
2.434989279
 31
0.0
  0
LINE
  5
1CB
330
1F
100
AcDbEntity
  8
0
  6
CONTINUOUS
 62
     7
100
AcDbLine
 10
7.6475577945
 20
3.0403877577
 30
0.0
 11
7.6554908612
 21
3.0316375159
 31
0.0
  0
LINE
  5
1CC
330
1F
100
AcDbEntity
  8
0
  6
CONTINUOUS
 62
     7
100
AcDbLine
 10
7.6554908612
 20
3.0316375159
 30
0.0
 11
7.6441699552
 21
3.0213738564
 31
0.0
  0
LINE
  5
1CD
330
1F
100
AcDbEntity
  8
0
  6
CONTINUOUS
 62
     7
100
AcDbLine
 10
7.6362368885
 20
3.0301240982
 30
0.0
 11
7.6475577945
 21
3.0403877577
 31
0.0
  0
LINE
  5
1CE
330
1F
100
AcDbEntity
  8
0
  6
CONTINUOUS
 62
     7
100
AcDbLine
 10
7.5297036973
 20
2.9335399199
 30
0.0
 11
7.5376367641
 21
2.9247896781
 31
0.0
  0
LINE
  5
1CF
330
1F
100
AcDbEntity
  8
0
  6
CONTINUOUS
 62
     7
100
AcDbLine
 10
7.6362368885
 20
3.0301240982
 30
0.0
 11
7.5297036973
 21
2.9335399199
 31
0.0
  0
LINE
  5
1D0
330
1F
100
AcDbEntity
  8
0
  6
CONTINUOUS
 62
     7
100
AcDbLine
 10
7.6441699552
 20
3.0213738564
 30
0.0
 11
7.5376367641
 21
2.9247896781
 31
0.0
  0
LINE
  5
1D1
330
1F
100
AcDbEntity
  8
0
  6
CONTINUOUS
 62
     7
100
AcDbLine
 10
7.523887076
 20
2.9282665062
 30
0.0
 11
7.5297036973
 21
2.9335399199
 31
0.0
  0
LINE
  5
1D2
330
1F
100
AcDbEntity
  8
0
  6
CONTINUOUS
 62
     7
100
AcDbLine
 10
7.5376367641
 20
2.9247896781
 30
0.0
 11
7.5318201427
 21
2.9195162644
 31
0.0
  0
LINE
  5
1D3
330
1F
100
AcDbEntity
  8
0
  6
CONTINUOUS
 62
     7
100
AcDbLine
 10
7.6554489468
 20
2.2621042044
 30
0.0
 11
7.646698705
 21
2.2541711377
 31
0.0
  0
LINE
  5
1D4
330
1F
100
AcDbEntity
  8
0
  6
CONTINUOUS
 62
     7
100
AcDbLine
 10
7.646698705
 20
2.2541711377
 30
0.0
 11
7.6334769271
 21
2.268754874
 31
0.0
  0
LINE
  5
1D5
330
1F
100
AcDbEntity
  8
0
  6
CONTINUOUS
 62
     7
100
AcDbLine
 10
7.6422271689
 20
2.2766879407
 30
0.0
 11
7.6554489468
 21
2.2621042044
 31
0.0
  0
LINE
  5
1D6
330
1F
100
AcDbEntity
  8
0
  6
CONTINUOUS
 62
     7
100
AcDbLine
 10
7.5401325959
 20
2.3717144856
 30
0.0
 11
7.5488828377
 21
2.3796475523
 31
0.0
  0
LINE
  5
1D7
330
1F
100
AcDbEntity
  8
0
  6
CONTINUOUS
 62
     7
100
AcDbLine
 10
7.5401325959
 20
2.3717144856
 30
0.0
 11
7.6334769271
 21
2.268754874
 31
0.0
  0
LINE
  5
1D8
330
1F
100
AcDbEntity
  8
0
  6
CONTINUOUS
 62
     7
100
AcDbLine
 10
7.5488828377
 20
2.3796475523
 30
0.0
 11
7.6422271689
 21
2.2766879407
 31
0.0
  0
LINE
  5
1D9
330
1F
100
AcDbEntity
  8
0
  6
CONTINUOUS
 62
     7
100
AcDbLine
 10
7.5401325959
 20
2.3717144856
 30
0.0
 11
7.5349169995
 21
2.3774673339
 31
0.0
  0
LINE
  5
1DA
330
1F
100
AcDbEntity
  8
0
  6
CONTINUOUS
 62
     7
100
AcDbLine
 10
7.5436672413
 20
2.3854004006
 30
0.0
 11
7.5488828377
 21
2.3796475523
 31
0.0
  0
LINE
  5
1DB
330
1F
100
AcDbEntity
  8
0
  6
CONTINUOUS
 62
     7
100
AcDbLine
 10
7.4879477102
 20
2.8975877042
 30
0.0
 11
7.4879477102
 21
2.8877423088
 31
0.0
  0
LINE
  5
1DC
330
1F
100
AcDbEntity
  8
0
  6
CONTINUOUS
 62
     7
100
AcDbLine
 10
7.4879477102
 20
2.4251467593
 30
0.0
 11
7.4879477102
 21
2.4352893476
 31
0.0
  0
LINE
  5
1DD
330
1F
100
AcDbEntity
  8
0
  6
CONTINUOUS
 62
     7
100
AcDbLine
 10
7.4879477102
 20
2.8351896243
 30
0.0
 11
7.4879477102
 21
2.8877423088
 31
0.0
  0
LINE
  5
1DE
330
1F
100
AcDbEntity
  8
0
  6
CONTINUOUS
 62
     7
100
AcDbLine
 10
7.4879477102
 20
2.4891733158
 30
0.0
 11
7.4879477102
 21
2.4352893476
 31
0.0
  0
LINE
  5
1DF
330
1F
100
AcDbEntity
  8
0
  6
CONTINUOUS
 62
     7
100
AcDbLine
 10
7.5076327496
 20
2.8975877042
 30
0.0
 11
7.4682626708
 21
2.8975877042
 31
0.0
  0
LINE
  5
1E0
330
1F
100
AcDbEntity
  8
0
  6
CONTINUOUS
 62
     7
100
AcDbLine
 10
7.5076327496
 20
2.9172727436
 30
0.0
 11
7.4682626708
 21
2.9172727436
 31
0.0
  0
LINE
  5
1E1
330
1F
100
AcDbEntity
  8
0
  6
CONTINUOUS
 62
     7
100
AcDbLine
 10
7.5076327496
 20
2.9172727436
 30
0.0
 11
7.6480174064
 21
3.0412513313
 31
0.0
  0
LINE
  5
1E2
330
1F
100
AcDbEntity
  8
0
  6
CONTINUOUS
 62
     7
100
AcDbLine
 10
7.6480174064
 20
3.0412513313
 30
0.0
 11
7.6560555658
 21
3.0321494834
 31
0.0
  0
LINE
  5
1E3
330
1F
100
AcDbEntity
  8
0
  6
CONTINUOUS
 62
     7
100
AcDbLine
 10
7.5318201427
 20
2.9195162644
 30
0.0
 11
7.5076327496
 21
2.8975877042
 31
0.0
  0
LINE
  5
1E4
330
1F
100
AcDbEntity
  8
0
  6
CONTINUOUS
 62
     7
100
AcDbLine
 10
7.6560555658
 20
3.0321494834
 30
0.0
 11
7.6554908612
 21
3.0316375159
 31
0.0
  0
LINE
  5
1E5
330
1F
100
AcDbEntity
  8
0
  6
CONTINUOUS
 62
     7
100
AcDbLine
 10
7.596895568
 20
2.3091044322
 30
0.0
 11
7.5076327496
 21
2.4054617199
 31
0.0
  0
LINE
  5
1E6
330
1F
100
AcDbEntity
  8
0
  6
CONTINUOUS
 62
     7
100
AcDbLine
 10
7.5076327496
 20
2.4054617199
 30
0.0
 11
7.4682626708
 21
2.4054617199
 31
0.0
  0
LINE
  5
1E7
330
1F
100
AcDbEntity
  8
0
  6
CONTINUOUS
 62
     7
100
AcDbLine
 10
7.5076327496
 20
2.4251467593
 30
0.0
 11
7.4682626708
 21
2.4251467593
 31
0.0
  0
LINE
  5
1E8
330
1F
100
AcDbEntity
  8
0
  6
CONTINUOUS
 62
     7
100
AcDbLine
 10
7.5076327496
 20
2.4251467593
 30
0.0
 11
7.5436672413
 21
2.3854004006
 31
0.0
  0
LINE
  5
1E9
330
1F
100
AcDbEntity
  8
0
  6
CONTINUOUS
 62
     7
100
AcDbLine
 10
7.5633467826
 20
2.331455152
 30
0.0
 11
7.6057484327
 21
2.2846857621
 31
0.0
  0
LINE
  5
1EA
330
1F
100
AcDbEntity
  8
0
  6
CONTINUOUS
 62
     7
100
AcDbLine
 10
7.6018719296
 20
3.0122538172
 30
0.0
 11
7.5552039762
 21
2.9699441306
 31
0.0
  0
LINE
  5
1EB
330
1F
100
AcDbEntity
  8
0
  6
CONTINUOUS
 62
     7
100
AcDbLine
 10
7.4879477102
 20
2.6898594144
 30
0.0
 11
7.4879477102
 21
2.6328750491
 31
0.0
  0
LINE
  5
1EC
330
1F
100
AcDbEntity
  8
0
  6
CONTINUOUS
 62
     7
100
AcDbLine
 10
6.5115697574
 20
2.9752289691
 30
0.0
 11
6.5115697574
 21
2.9756439826
 31
0.0
  0
LWPOLYLINE
  5
1ED
330
1F
100
AcDbEntity
  8
0
  6
CONTINUOUS
 62
     7
100
AcDbPolyline
 90
        3
 70
   128
 43
0.0
 10
6.4264582399
 20
2.8965539091
 10
6.4168608475
 20
2.874930202
 10
6.4162097693
 20
2.8734624229
  0
LWPOLYLINE
  5
1EE
330
1F
100
AcDbEntity
  8
0
  6
CONTINUOUS
 62
     7
100
AcDbPolyline
 90
        3
 70
   128
 43
0.0
 10
6.4039728302
 20
2.8721877417
 10
6.4032962752
 20
2.8731253038
 10
6.3863810089
 20
2.8965539091
  0
LINE
  5
1EF
330
1F
100
AcDbEntity
  8
0
  6
CONTINUOUS
 62
     7
100
AcDbLine
 10
6.3547602318
 20
2.8721877417
 30
0.0
 11
6.3501524346
 21
2.8785723541
 31
0.0
  0
LINE
  5
1F0
330
1F
100
AcDbEntity
  8
0
  6
CONTINUOUS
 62
     7
100
AcDbLine
 10
7.4879477102
 20
2.8329650439
 30
0.0
 11
7.4879477102
 21
2.8351896243
 31
0.0
  0
LINE
  5
1F1
330
1F
100
AcDbEntity
  8
0
  6
CONTINUOUS
 62
     7
100
AcDbLine
 10
7.4879477102
 20
2.4891733158
 30
0.0
 11
7.4879477102
 21
2.4908417511
 31
0.0
  0
LINE
  5
1F2
330
1F
100
AcDbEntity
  8
0
  6
CONTINUOUS
 62
     7
100
AcDbLine
 10
6.6622727615
 20
2.8734624229
 30
0.0
 11
6.6500358224
 21
2.8721877417
 31
0.0
  0
LINE
  5
1F3
330
1F
100
AcDbEntity
  8
0
  6
CONTINUOUS
 62
     7
100
AcDbLine
 10
6.6926721196
 20
2.8812993715
 30
0.0
 11
6.6816565995
 21
2.8965539091
 31
0.0
  0
LINE
  5
1F4
330
1F
100
AcDbEntity
  8
0
  6
CONTINUOUS
 62
     7
100
AcDbLine
 10
6.6816565995
 20
2.8965539091
 30
0.0
 11
6.672521232
 21
2.8965539091
 31
0.0
  0
LWPOLYLINE
  5
1F5
330
1F
100
AcDbEntity
  8
0
  6
CONTINUOUS
 62
     7
100
AcDbPolyline
 90
        3
 70
   128
 43
0.0
 10
6.672521232
 20
2.8965539091
 10
6.6629237484
 20
2.8749299963
 10
6.6622727615
 20
2.8734624229
  0
LINE
  5
1F6
330
1F
100
AcDbEntity
  8
0
  6
CONTINUOUS
 62
     7
100
AcDbLine
 10
6.4848062058
 20
2.8965539091
 30
0.0
 11
6.4756708383
 21
2.8965539091
 31
0.0
  0
LINE
  5
1F7
330
1F
100
AcDbEntity
  8
0
  6
CONTINUOUS
 62
     7
100
AcDbLine
 10
6.3501524346
 20
2.8785723541
 30
0.0
 11
6.3501524346
 21
2.8783769894
 31
0.0
  0
LINE
  5
1F8
330
1F
100
AcDbEntity
  8
0
  6
CONTINUOUS
 62
     7
100
AcDbLine
 10
7.4682626708
 20
2.7280959224
 30
0.0
 11
7.4934208035
 21
2.7280959224
 31
0.0
  0
ARC
  5
1F9
330
1F
100
AcDbEntity
  8
0
  6
CONTINUOUS
 62
     7
100
AcDbCircle
 10
7.4934208035
 20
2.7477809618
 30
0.0
 40
0.0196850393700787
100
AcDbArc
 50
270.0
 51
0.0
  0
LINE
  5
1FA
330
1F
100
AcDbEntity
  8
0
  6
CONTINUOUS
 62
     7
100
AcDbLine
 10
7.5131058429
 20
2.7477809618
 30
0.0
 11
7.5131058429
 21
2.7500226188
 31
0.0
  0
LINE
  5
1FB
330
1F
100
AcDbEntity
  8
0
  6
CONTINUOUS
 62
     7
100
AcDbLine
 10
7.5131058429
 20
2.7500226188
 30
0.0
 11
7.6478975454
 21
2.7500226188
 31
0.0
  0
ARC
  5
1FC
330
1F
100
AcDbEntity
  8
0
  6
CONTINUOUS
 62
     7
100
AcDbCircle
 10
7.6478975454
 20
2.7303375794
 30
0.0
 40
0.0196850393700787
100
AcDbArc
 50
0.0
 51
90.0
  0
LINE
  5
1FD
330
1F
100
AcDbEntity
  8
0
  6
CONTINUOUS
 62
     7
100
AcDbLine
 10
7.6675825848
 20
2.7303375794
 30
0.0
 11
7.6675825848
 21
2.6052646749
 31
0.0
  0
ARC
  5
1FE
330
1F
100
AcDbEntity
  8
0
  6
CONTINUOUS
 62
     7
100
AcDbCircle
 10
7.6478975454
 20
2.6052646749
 30
0.0
 40
0.0196850393700787
100
AcDbArc
 50
270.0
 51
0.0
  0
LINE
  5
1FF
330
1F
100
AcDbEntity
  8
0
  6
CONTINUOUS
 62
     7
100
AcDbLine
 10
7.6478975454
 20
2.5855796355
 30
0.0
 11
7.5131058429
 21
2.5855796355
 31
0.0
  0
LINE
  5
200
330
1F
100
AcDbEntity
  8
0
  6
CONTINUOUS
 62
     7
100
AcDbLine
 10
7.5131058429
 20
2.5855796355
 30
0.0
 11
7.5131058429
 21
2.592216497
 31
0.0
  0
ARC
  5
201
330
1F
100
AcDbEntity
  8
0
  6
CONTINUOUS
 62
     7
100
AcDbCircle
 10
7.4934208035
 20
2.592216497
 30
0.0
 40
0.0196850393700787
100
AcDbArc
 50
360.0
 51
90.0
  0
LINE
  5
202
330
1F
100
AcDbEntity
  8
0
  6
CONTINUOUS
 62
     7
100
AcDbLine
 10
7.4934208035
 20
2.6119015363
 30
0.0
 11
7.4682626708
 21
2.6119015363
 31
0.0
  0
CIRCLE
  5
203
330
1F
100
AcDbEntity
  8
0
  6
CONTINUOUS
 62
     7
100
AcDbCircle
 10
7.5899521712
 20
2.6710517882
 30
0.0
 40
0.0314960629921264
  0
LINE
  5
204
330
1F
100
AcDbEntity
  8
0
  6
PHANTOM
 62
     8
100
AcDbLine
 10
7.4288925921
 20
2.966485342
 30
0.0
 11
7.4288925921
 21
3.1830207751
 31
0.0
  0
LINE
  5
205
330
1F
100
AcDbEntity
  8
0
  6
PHANTOM
 62
     8
100
AcDbLine
 10
7.4288925921
 20
3.1830207751
 30
0.0
 11
7.4682626708
 21
3.1830207751
 31
0.0
  0
LINE
  5
206
330
1F
100
AcDbEntity
  8
0
  6
PHANTOM
 62
     8
100
AcDbLine
 10
7.4288925921
 20
3.1830207751
 30
0.0
 11
7.4288925921
 21
3.2223908538
 31
0.0
  0
LINE
  5
207
330
1F
100
AcDbEntity
  8
0
  6
PHANTOM
 62
     8
100
AcDbLine
 10
7.4288925921
 20
2.434989279
 30
0.0
 11
7.4288925921
 21
2.8877451845
 31
0.0
  0
LINE
  5
208
330
1F
100
AcDbEntity
  8
0
  6
PHANTOM
 62
     8
100
AcDbLine
 10
7.4682626708
 20
2.1397136884
 30
0.0
 11
7.4288925921
 21
2.1397136884
 31
0.0
  0
LINE
  5
209
330
1F
100
AcDbEntity
  8
0
  6
PHANTOM
 62
     8
100
AcDbLine
 10
7.4288925921
 20
2.1397136884
 30
0.0
 11
7.4288925921
 21
2.3562491215
 31
0.0
  0
LINE
  5
20A
330
1F
100
AcDbEntity
  8
0
  6
PHANTOM
 62
     8
100
AcDbLine
 10
7.4288925921
 20
2.1003436097
 30
0.0
 11
7.4288925921
 21
2.1397136884
 31
0.0
  0
LINE
  5
20B
330
1F
100
AcDbEntity
  8
0
  6
PHANTOM
 62
     8
100
AcDbLine
 10
7.4288925921
 20
3.1830207751
 30
0.0
 11
6.8225933795
 21
3.1830207751
 31
0.0
  0
LINE
  5
20C
330
1F
100
AcDbEntity
  8
0
  6
PHANTOM
 62
     8
100
AcDbLine
 10
6.8225933795
 20
2.1397136884
 30
0.0
 11
7.4288925921
 21
2.1397136884
 31
0.0
  0
LINE
  5
20D
330
1F
100
AcDbEntity
  8
0
  6
PHANTOM
 62
     8
100
AcDbLine
 10
7.377718045
 20
2.8903769594
 30
0.0
 11
7.377718045
 21
2.9650123637
 31
0.0
  0
LINE
  5
20E
330
1F
100
AcDbEntity
  8
0
  6
PHANTOM
 62
     8
100
AcDbLine
 10
7.3777114897
 20
2.3587063548
 30
0.0
 11
7.3777114897
 21
2.4340614733
 31
0.0
  0
LINE
  5
20F
330
1F
100
AcDbEntity
  8
0
  6
PHANTOM
 62
     8
100
AcDbLine
 10
6.8225933795
 20
3.043687731
 30
0.0
 11
6.8225933795
 21
2.279916916
 31
0.0
  0
LINE
  5
210
330
1F
100
AcDbEntity
  8
0
  6
PHANTOM
 62
     8
100
AcDbLine
 10
5.7570035738
 20
2.1616679877
 30
0.0
 11
5.802598484
 21
2.0974720645
 31
0.0
  0
LINE
  5
211
330
1F
100
AcDbEntity
  8
0
  6
PHANTOM
 62
     8
100
AcDbLine
 10
5.7570035738
 20
2.1616679877
 30
0.0
 11
6.302528868
 21
2.5491252523
 31
0.0
  0
LINE
  5
212
330
1F
100
AcDbEntity
  8
0
  6
PHANTOM
 62
     8
100
AcDbLine
 10
6.302528868
 20
2.5491252523
 30
0.0
 11
5.7199455696
 21
2.2205848549
 31
0.0
  0
LINE
  5
213
330
1F
100
AcDbEntity
  8
0
  6
PHANTOM
 62
     8
100
AcDbLine
 10
5.6812674658
 20
2.2891706893
 30
0.0
 11
5.7199455696
 21
2.2205848549
 31
0.0
  0
LINE
  5
214
330
1F
100
AcDbEntity
  8
0
  6
PHANTOM
 62
     8
100
AcDbLine
 10
5.7199455696
 20
2.2205848549
 30
0.0
 11
5.7570035738
 21
2.1616679877
 31
0.0
  0
LINE
  5
215
330
1F
100
AcDbEntity
  8
0
  6
PHANTOM
 62
     8
100
AcDbLine
 10
5.6903517922
 20
2.119744815
 30
0.0
 11
5.7570035738
 21
2.1616679877
 31
0.0
  0
LINE
  5
216
330
1F
100
AcDbEntity
  8
0
  6
PHANTOM
 62
     8
100
AcDbLine
 10
5.653293788
 20
2.1786616822
 30
0.0
 11
5.7199455696
 21
2.2205848549
 31
0.0
  0
LINE
  5
217
330
1F
100
AcDbEntity
  8
0
  6
PHANTOM
 62
     8
100
AcDbLine
 10
7.6441699552
 20
3.0213738564
 30
0.0
 11
7.6362368885
 21
3.0301240982
 31
0.0
  0
LINE
  5
218
330
1F
100
AcDbEntity
  8
0
  6
PHANTOM
 62
     8
100
AcDbLine
 10
7.5318201427
 20
2.9195162644
 30
0.0
 11
7.523887076
 21
2.9282665062
 31
0.0
  0
LINE
  5
219
330
1F
100
AcDbEntity
  8
0
  6
PHANTOM
 62
     8
100
AcDbLine
 10
7.6334769271
 20
2.268754874
 30
0.0
 11
7.6422271689
 21
2.2766879407
 31
0.0
  0
LINE
  5
21A
330
1F
100
AcDbEntity
  8
0
  6
PHANTOM
 62
     8
100
AcDbLine
 10
7.5349169995
 20
2.3774673339
 30
0.0
 11
7.5436672413
 21
2.3854004006
 31
0.0
  0
LINE
  5
21B
330
1F
100
AcDbEntity
  8
0
  6
PHANTOM
 62
     8
100
AcDbLine
 10
7.4879477102
 20
2.8877423088
 30
0.0
 11
7.4682626708
 21
2.8877423088
 31
0.0
  0
LINE
  5
21C
330
1F
100
AcDbEntity
  8
0
  6
PHANTOM
 62
     8
100
AcDbLine
 10
7.4879477102
 20
2.4352893476
 30
0.0
 11
7.4682626708
 21
2.4352893476
 31
0.0
  0
LINE
  5
21D
330
1F
100
AcDbEntity
  8
0
  6
PHANTOM
 62
     8
100
AcDbLine
 10
7.4879477102
 20
2.8351896243
 30
0.0
 11
7.4682626708
 21
2.8351896243
 31
0.0
  0
LINE
  5
21E
330
1F
100
AcDbEntity
  8
0
  6
PHANTOM
 62
     8
100
AcDbLine
 10
7.4879477102
 20
2.4891733158
 30
0.0
 11
7.4682626708
 21
2.4891733158
 31
0.0
  0
LINE
  5
21F
330
1F
100
AcDbEntity
  8
0
  6
PHANTOM
 62
     8
100
AcDbLine
 10
7.563937326
 20
2.342526441
 30
0.0
 11
7.6168244374
 21
2.2841914957
 31
0.0
  0
LINE
  5
220
330
1F
100
AcDbEntity
  8
0
  6
PHANTOM
 62
     8
100
AcDbLine
 10
7.6129941352
 20
3.0117090338
 30
0.0
 11
7.55465919
 21
2.9588219223
 31
0.0
  0
LINE
  5
221
330
1F
100
AcDbEntity
  8
0
  6
PHANTOM
 62
     8
100
AcDbLine
 10
7.4800736945
 20
2.6250010334
 30
0.0
 11
7.4800736945
 21
2.6977334301
 31
0.0
  0
INSERT
  5
22D
330
1F
100
AcDbEntity
  8
0
  6
CONTINUOUS
 62
     7
100
AcDbBlockReference
  2
SW_CENTERMARKSYMBOL_0
 10
7.5899521712
 20
2.6710517882
 30
0.0
  0
LWPOLYLINE
  5
22E
330
1F
100
AcDbEntity
  8
0
  6
CONTINUOUS
 62
     7
100
AcDbPolyline
 90
       18
 70
   128
 43
0.0
 10
4.3333935678
 20
6.0868651596
 10
4.3336494583
 20
6.0819027147
 10
4.3354207467
 20
6.0760179364
 10
4.3385341313
 20
6.0705844782
 10
4.3428954741
 20
6.0657328063
 10
4.3483922315
 20
6.0616131499
 10
4.3548475768
 20
6.0583899283
 10
4.3620145024
 20
6.0562057899
 10
4.3696061191
 20
6.055155321
 10
4.3773300658
 20
6.0552832063
 10
4.3849032558
 20
6.0565960974
 10
4.3920454413
 20
6.0590699595
 10
4.3984828232
 20
6.0626516496
 10
4.4039324327
 20
6.0672403753
 10
4.408121033
 20
6.0726600686
 10
4.4108316033
 20
6.0786391551
 10
4.4119681048
 20
6.0848507536
 10
4.41188769
 20
6.0860664411
  0
LINE
  5
22F
330
1F
100
AcDbEntity
  8
0
  6
CONTINUOUS
 62
     7
100
AcDbLine
 10
4.3332681066
 20
6.0866260158
 30
0.0
 11
4.3332681066
 21
6.0862719468
 31
0.0
  0
LINE
  5
230
330
1F
100
AcDbEntity
  8
0
  6
CONTINUOUS
 62
     7
100
AcDbLine
 10
4.4120082641
 20
6.0862719468
 30
0.0
 11
4.4120082641
 21
6.0866260158
 31
0.0
  0
LINE
  5
231
330
1F
100
AcDbEntity
  8
0
  6
CONTINUOUS
 62
     7
100
AcDbLine
 10
4.7155468445
 20
5.0927551991
 30
0.0
 11
4.7155468445
 21
5.1124402385
 31
0.0
  0
LINE
  5
232
330
1F
100
AcDbEntity
  8
0
  6
CONTINUOUS
 62
     7
100
AcDbLine
 10
4.0297295262
 20
5.1124402385
 30
0.0
 11
4.0297295262
 21
5.0927551991
 31
0.0
  0
ARC
  5
233
330
1F
100
AcDbEntity
  8
0
  6
CONTINUOUS
 62
     7
100
AcDbCircle
 10
4.6210771573
 20
5.3053536243
 30
0.0
 40
0.0196850393700787
100
AcDbArc
 50
270.0
 51
0.0
  0
ARC
  5
234
330
1F
100
AcDbEntity
  8
0
  6
CONTINUOUS
 62
     7
100
AcDbCircle
 10
4.1241992133
 20
5.3053536243
 30
0.0
 40
0.0196850393700787
100
AcDbArc
 50
180.0
 51
270.0
  0
LINE
  5
235
330
1F
100
AcDbEntity
  8
0
  6
CONTINUOUS
 62
     7
100
AcDbLine
 10
4.4353436941
 20
5.970707955
 30
0.0
 11
4.4353436941
 21
5.9903929944
 31
0.0
  0
LINE
  5
236
330
1F
100
AcDbEntity
  8
0
  6
CONTINUOUS
 62
     7
100
AcDbLine
 10
4.3125316961
 20
5.9903929944
 30
0.0
 11
4.3125316961
 21
5.970707955
 31
0.0
  0
LINE
  5
237
330
1F
100
AcDbEntity
  8
0
  6
CONTINUOUS
 62
     7
100
AcDbLine
 10
4.5828755233
 20
5.182749409
 30
0.0
 11
4.6046482339
 21
5.19504706
 31
0.0
  0
LINE
  5
238
330
1F
100
AcDbEntity
  8
0
  6
CONTINUOUS
 62
     7
100
AcDbLine
 10
4.1406158573
 20
5.1950539956
 30
0.0
 11
4.1624008473
 21
5.182749409
 31
0.0
  0
LINE
  5
239
330
1F
100
AcDbEntity
  8
0
  6
CONTINUOUS
 62
     7
100
AcDbLine
 10
4.6042392478
 20
5.1664368144
 30
0.0
 11
4.5863832285
 21
5.1765222418
 31
0.0
  0
LINE
  5
23A
330
1F
100
AcDbEntity
  8
0
  6
CONTINUOUS
 62
     7
100
AcDbLine
 10
4.1588931421
 20
5.1765222418
 30
0.0
 11
4.1407449545
 21
5.166271792
 31
0.0
  0
LINE
  5
23B
330
1F
100
AcDbEntity
  8
0
  6
CONTINUOUS
 62
     7
100
AcDbLine
 10
4.1364177129
 20
5.1613886708
 30
0.0
 11
4.1364177129
 21
5.1506515453
 31
0.0
  0
LINE
  5
23C
330
1F
100
AcDbEntity
  8
0
  6
CONTINUOUS
 62
     7
100
AcDbLine
 10
4.6088586578
 20
5.1506516018
 30
0.0
 11
4.6088586578
 21
5.1613887273
 31
0.0
  0
LINE
  5
23D
330
1F
100
AcDbEntity
  8
0
  6
CONTINUOUS
 62
     7
100
AcDbLine
 10
4.1410371228
 20
5.1456034582
 30
0.0
 11
4.1624008473
 21
5.1335368106
 31
0.0
  0
LINE
  5
23E
330
1F
100
AcDbEntity
  8
0
  6
CONTINUOUS
 62
     7
100
AcDbLine
 10
4.5828755233
 20
5.1335368106
 30
0.0
 11
4.6045314161
 21
5.1457684806
 31
0.0
  0
LINE
  5
23F
330
1F
100
AcDbEntity
  8
0
  6
CONTINUOUS
 62
     7
100
AcDbLine
 10
4.1410371228
 20
4.997965663
 30
0.0
 11
4.1624008473
 21
4.9858990153
 31
0.0
  0
LINE
  5
240
330
1F
100
AcDbEntity
  8
0
  6
CONTINUOUS
 62
     7
100
AcDbLine
 10
4.5828755233
 20
4.9858990153
 30
0.0
 11
4.6045314161
 21
4.9981306853
 31
0.0
  0
LINE
  5
241
330
1F
100
AcDbEntity
  8
0
  6
CONTINUOUS
 62
     7
100
AcDbLine
 10
4.1364177129
 20
5.0137525253
 30
0.0
 11
4.1364177129
 21
5.00301375
 31
0.0
  0
LINE
  5
242
330
1F
100
AcDbEntity
  8
0
  6
CONTINUOUS
 62
     7
100
AcDbLine
 10
4.6088586578
 20
5.0030138065
 30
0.0
 11
4.6088586578
 21
5.0137523126
 31
0.0
  0
LINE
  5
243
330
1F
100
AcDbEntity
  8
0
  6
CONTINUOUS
 62
     7
100
AcDbLine
 10
4.1364177129
 20
4.9645382771
 30
0.0
 11
4.1364177129
 21
4.9538011516
 31
0.0
  0
LINE
  5
244
330
1F
100
AcDbEntity
  8
0
  6
CONTINUOUS
 62
     7
100
AcDbLine
 10
4.6088586578
 20
4.9538012081
 30
0.0
 11
4.6088586578
 21
4.9645383336
 31
0.0
  0
LINE
  5
245
330
1F
100
AcDbEntity
  8
0
  6
CONTINUOUS
 62
     7
100
AcDbLine
 10
4.6042392478
 20
4.9695864207
 30
0.0
 11
4.5863832285
 21
4.9796718481
 31
0.0
  0
LINE
  5
246
330
1F
100
AcDbEntity
  8
0
  6
CONTINUOUS
 62
     7
100
AcDbLine
 10
4.1588931421
 20
4.9796718481
 30
0.0
 11
4.1407449545
 21
4.9694213983
 31
0.0
  0
LINE
  5
247
330
1F
100
AcDbEntity
  8
0
  6
CONTINUOUS
 62
     7
100
AcDbLine
 10
4.5828755233
 20
4.9366864169
 30
0.0
 11
4.6045314161
 21
4.9489180869
 31
0.0
  0
LINE
  5
248
330
1F
100
AcDbEntity
  8
0
  6
CONTINUOUS
 62
     7
100
AcDbLine
 10
4.1410371228
 20
4.9487530645
 30
0.0
 11
4.1624008473
 21
4.9366864169
 31
0.0
  0
LINE
  5
249
330
1F
100
AcDbEntity
  8
0
  6
CONTINUOUS
 62
     7
100
AcDbLine
 10
4.6042392478
 20
4.9203738222
 30
0.0
 11
4.5863832285
 21
4.9304592497
 31
0.0
  0
LINE
  5
24A
330
1F
100
AcDbEntity
  8
0
  6
CONTINUOUS
 62
     7
100
AcDbLine
 10
4.1364177129
 20
4.9153256787
 30
0.0
 11
4.1364177129
 21
4.9045885532
 31
0.0
  0
LINE
  5
24B
330
1F
100
AcDbEntity
  8
0
  6
CONTINUOUS
 62
     7
100
AcDbLine
 10
4.6088586578
 20
4.9045886096
 30
0.0
 11
4.6088586578
 21
4.9153257352
 31
0.0
  0
LINE
  5
24C
330
1F
100
AcDbEntity
  8
0
  6
CONTINUOUS
 62
     7
100
AcDbLine
 10
4.1588931421
 20
4.9304592497
 30
0.0
 11
4.1407449545
 21
4.9202087999
 31
0.0
  0
LINE
  5
24D
330
1F
100
AcDbEntity
  8
0
  6
CONTINUOUS
 62
     7
100
AcDbLine
 10
4.1410371228
 20
4.8995404661
 30
0.0
 11
4.1624008473
 21
4.8874738184
 31
0.0
  0
LINE
  5
24E
330
1F
100
AcDbEntity
  8
0
  6
CONTINUOUS
 62
     7
100
AcDbLine
 10
4.5828755233
 20
4.8874738184
 30
0.0
 11
4.6045314161
 21
4.8997054884
 31
0.0
  0
LINE
  5
24F
330
1F
100
AcDbEntity
  8
0
  6
CONTINUOUS
 62
     7
100
AcDbLine
 10
4.6042392478
 20
5.1172242159
 30
0.0
 11
4.5863832285
 21
5.1273096434
 31
0.0
  0
LINE
  5
250
330
1F
100
AcDbEntity
  8
0
  6
CONTINUOUS
 62
     7
100
AcDbLine
 10
4.1588931421
 20
5.1273096434
 30
0.0
 11
4.1407449545
 21
5.1170591936
 31
0.0
  0
LINE
  5
251
330
1F
100
AcDbEntity
  8
0
  6
CONTINUOUS
 62
     7
100
AcDbLine
 10
4.1588931421
 20
4.8812466513
 30
0.0
 11
4.1407449545
 21
4.8709962015
 31
0.0
  0
LINE
  5
252
330
1F
100
AcDbEntity
  8
0
  6
CONTINUOUS
 62
     7
100
AcDbLine
 10
4.6042392478
 20
4.8711612238
 30
0.0
 11
4.5863832285
 21
4.8812466513
 31
0.0
  0
LINE
  5
253
330
1F
100
AcDbEntity
  8
0
  6
CONTINUOUS
 62
     7
100
AcDbLine
 10
4.5863832285
 20
4.9284449738
 30
0.0
 11
4.5863832285
 21
4.9386676371
 31
0.0
  0
LINE
  5
254
330
1F
100
AcDbEntity
  8
0
  6
CONTINUOUS
 62
     7
100
AcDbLine
 10
4.1588931421
 20
4.9386676371
 30
0.0
 11
4.1588931421
 21
4.9284449738
 31
0.0
  0
LINE
  5
255
330
1F
100
AcDbEntity
  8
0
  6
CONTINUOUS
 62
     7
100
AcDbLine
 10
4.1588931421
 20
5.1847306292
 30
0.0
 11
4.1588931421
 21
5.174507966
 31
0.0
  0
LINE
  5
256
330
1F
100
AcDbEntity
  8
0
  6
CONTINUOUS
 62
     7
100
AcDbLine
 10
4.5863832285
 20
5.1252953675
 30
0.0
 11
4.5863832285
 21
5.1355180308
 31
0.0
  0
LINE
  5
257
330
1F
100
AcDbEntity
  8
0
  6
CONTINUOUS
 62
     7
100
AcDbLine
 10
4.1588931421
 20
5.1355180308
 30
0.0
 11
4.1588931421
 21
5.1252953675
 31
0.0
  0
LINE
  5
258
330
1F
100
AcDbEntity
  8
0
  6
CONTINUOUS
 62
     7
100
AcDbLine
 10
4.5863832285
 20
4.9776575723
 30
0.0
 11
4.5863832285
 21
4.9878802355
 31
0.0
  0
LINE
  5
259
330
1F
100
AcDbEntity
  8
0
  6
CONTINUOUS
 62
     7
100
AcDbLine
 10
4.1588931421
 20
4.9878802355
 30
0.0
 11
4.1588931421
 21
4.9776575723
 31
0.0
  0
LINE
  5
25A
330
1F
100
AcDbEntity
  8
0
  6
CONTINUOUS
 62
     7
100
AcDbLine
 10
4.5863832285
 20
4.8792323754
 30
0.0
 11
4.5863832285
 21
4.8894550386
 31
0.0
  0
LINE
  5
25B
330
1F
100
AcDbEntity
  8
0
  6
CONTINUOUS
 62
     7
100
AcDbLine
 10
4.1588931421
 20
4.8894550386
 30
0.0
 11
4.1588931421
 21
4.8792323754
 31
0.0
  0
LINE
  5
25C
330
1F
100
AcDbEntity
  8
0
  6
CONTINUOUS
 62
     7
100
AcDbLine
 10
4.5863832285
 20
5.174507966
 30
0.0
 11
4.5863832285
 21
5.1847306292
 31
0.0
  0
LINE
  5
25D
330
1F
100
AcDbEntity
  8
0
  6
CONTINUOUS
 62
     7
100
AcDbLine
 10
4.1544443599
 20
5.2856685849
 30
0.0
 11
4.1624008473
 21
5.2811746058
 31
0.0
  0
LINE
  5
25E
330
1F
100
AcDbEntity
  8
0
  6
CONTINUOUS
 62
     7
100
AcDbLine
 10
4.5828755233
 20
5.2811746058
 30
0.0
 11
4.5908320108
 21
5.2856685849
 31
0.0
  0
LINE
  5
25F
330
1F
100
AcDbEntity
  8
0
  6
CONTINUOUS
 62
     7
100
AcDbLine
 10
4.1364177129
 20
4.8661130803
 30
0.0
 11
4.1364177129
 21
4.8553745004
 31
0.0
  0
LINE
  5
260
330
1F
100
AcDbEntity
  8
0
  6
CONTINUOUS
 62
     7
100
AcDbLine
 10
4.6088586578
 20
4.8553760112
 30
0.0
 11
4.6088586578
 21
4.8661131368
 31
0.0
  0
LINE
  5
261
330
1F
100
AcDbEntity
  8
0
  6
CONTINUOUS
 62
     7
100
AcDbLine
 10
4.5863832285
 20
5.2738575613
 30
0.0
 11
4.5863832285
 21
5.283155826
 31
0.0
  0
LINE
  5
262
330
1F
100
AcDbEntity
  8
0
  6
CONTINUOUS
 62
     7
100
AcDbLine
 10
4.1588931421
 20
5.283155826
 30
0.0
 11
4.1588931421
 21
5.2738575613
 31
0.0
  0
LINE
  5
263
330
1F
100
AcDbEntity
  8
0
  6
CONTINUOUS
 62
     7
100
AcDbLine
 10
4.0501516351
 20
5.2738575613
 30
0.0
 11
4.042081313
 21
5.2657872392
 31
0.0
  0
ARC
  5
264
330
1F
100
AcDbEntity
  8
0
  6
CONTINUOUS
 62
     7
100
AcDbCircle
 10
4.2973497058
 20
6.0609013924
 30
0.0
 40
0.0078740157480324
100
AcDbArc
 50
180.0
 51
270.0
  0
ARC
  5
265
330
1F
100
AcDbEntity
  8
0
  6
CONTINUOUS
 62
     7
100
AcDbCircle
 10
4.2973497058
 20
6.1238935184
 30
0.0
 40
0.0078740157480315
100
AcDbArc
 50
90.0
 51
180.0
  0
LINE
  5
266
330
1F
100
AcDbEntity
  8
0
  6
CONTINUOUS
 62
     7
100
AcDbLine
 10
4.2993182097
 20
6.1317675341
 30
0.0
 11
4.2973497058
 21
6.1317675341
 31
0.0
  0
LINE
  5
267
330
1F
100
AcDbEntity
  8
0
  6
CONTINUOUS
 62
     7
100
AcDbLine
 10
4.2973497058
 20
6.0530273766
 30
0.0
 11
4.2993182097
 21
6.0530273766
 31
0.0
  0
LINE
  5
268
330
1F
100
AcDbEntity
  8
0
  6
CONTINUOUS
 62
     7
100
AcDbLine
 10
4.7031950576
 20
5.2657872392
 30
0.0
 11
4.6951247355
 21
5.2738575613
 31
0.0
  0
LINE
  5
269
330
1F
100
AcDbEntity
  8
0
  6
CONTINUOUS
 62
     7
100
AcDbLine
 10
4.5883128316
 20
5.2738575613
 30
0.0
 11
4.5863832285
 21
5.2749474387
 31
0.0
  0
LINE
  5
26A
330
1F
100
AcDbEntity
  8
0
  6
CONTINUOUS
 62
     7
100
AcDbLine
 10
4.1588931421
 20
5.2749474387
 30
0.0
 11
4.1569635391
 21
5.2738575613
 31
0.0
  0
ARC
  5
26B
330
1F
100
AcDbEntity
  8
0
  6
CONTINUOUS
 62
     7
100
AcDbCircle
 10
4.3332681066
 20
4.2223908538
 30
0.0
 40
0.0787401574803157
100
AcDbArc
 50
180.0
 51
270.0
  0
ARC
  5
26C
330
1F
100
AcDbEntity
  8
0
  6
CONTINUOUS
 62
     7
100
AcDbCircle
 10
4.4120082641
 20
4.2223908538
 30
0.0
 40
0.0787401574803157
100
AcDbArc
 50
270.0
 51
0.0
  0
LINE
  5
26D
330
1F
100
AcDbEntity
  8
0
  6
CONTINUOUS
 62
     7
100
AcDbLine
 10
4.3332681066
 20
4.1436506963
 30
0.0
 11
4.4120082641
 21
4.1436506963
 31
0.0
  0
ARC
  5
26E
330
1F
100
AcDbEntity
  8
0
  6
CONTINUOUS
 62
     7
100
AcDbCircle
 10
4.6482287365
 20
5.9313378763
 30
0.0
 40
0.0393700787401574
100
AcDbArc
 50
0.0
 51
90.0
  0
ARC
  5
26F
330
1F
100
AcDbEntity
  8
0
  6
CONTINUOUS
 62
     7
100
AcDbCircle
 10
4.0970476341
 20
5.9313378763
 30
0.0
 40
0.0393700787401574
100
AcDbArc
 50
90.0
 51
180.0
  0
LINE
  5
270
330
1F
100
AcDbEntity
  8
0
  6
CONTINUOUS
 62
     7
100
AcDbLine
 10
4.4316933034
 20
5.970707955
 30
0.0
 11
4.6482287365
 21
5.970707955
 31
0.0
  0
LINE
  5
271
330
1F
100
AcDbEntity
  8
0
  6
CONTINUOUS
 62
     7
100
AcDbLine
 10
4.0970476341
 20
5.970707955
 30
0.0
 11
4.3135830672
 21
5.970707955
 31
0.0
  0
LINE
  5
272
330
1F
100
AcDbEntity
  8
0
  6
CONTINUOUS
 62
     7
100
AcDbLine
 10
4.3135830672
 20
5.970707955
 30
0.0
 11
4.3135830672
 21
5.9510229156
 31
0.0
  0
LINE
  5
273
330
1F
100
AcDbEntity
  8
0
  6
CONTINUOUS
 62
     7
100
AcDbLine
 10
4.4316933034
 20
5.9510229156
 30
0.0
 11
4.3135830672
 21
5.9510229156
 31
0.0
  0
LINE
  5
274
330
1F
100
AcDbEntity
  8
0
  6
CONTINUOUS
 62
     7
100
AcDbLine
 10
4.4316933034
 20
5.9510229156
 30
0.0
 11
4.4316933034
 21
5.970707955
 31
0.0
  0
LINE
  5
275
330
1F
100
AcDbEntity
  8
0
  6
CONTINUOUS
 62
     7
100
AcDbLine
 10
4.0970476341
 20
5.3250386637
 30
0.0
 11
4.6482287365
 21
5.3250386637
 31
0.0
  0
LINE
  5
276
330
1F
100
AcDbEntity
  8
0
  6
CONTINUOUS
 62
     7
100
AcDbLine
 10
4.6875988153
 20
5.3250386637
 30
0.0
 11
4.6482287365
 21
5.3250386637
 31
0.0
  0
LINE
  5
277
330
1F
100
AcDbEntity
  8
0
  6
CONTINUOUS
 62
     7
100
AcDbLine
 10
4.6875988153
 20
5.9313378763
 30
0.0
 11
4.6875988153
 21
5.3250386637
 31
0.0
  0
LINE
  5
278
330
1F
100
AcDbEntity
  8
0
  6
CONTINUOUS
 62
     7
100
AcDbLine
 10
4.0970476341
 20
5.3250386637
 30
0.0
 11
4.0576775554
 21
5.3250386637
 31
0.0
  0
LINE
  5
279
330
1F
100
AcDbEntity
  8
0
  6
CONTINUOUS
 62
     7
100
AcDbLine
 10
4.0576775554
 20
5.3250386637
 30
0.0
 11
4.0576775554
 21
5.9313378763
 31
0.0
  0
LINE
  5
27A
330
1F
100
AcDbEntity
  8
0
  6
CONTINUOUS
 62
     7
100
AcDbLine
 10
4.3162006124
 20
5.970707955
 30
0.0
 11
4.4289175498
 21
5.970707955
 31
0.0
  0
LINE
  5
27B
330
1F
100
AcDbEntity
  8
0
  6
CONTINUOUS
 62
     7
100
AcDbLine
 10
4.3162006124
 20
5.970707955
 30
0.0
 11
4.3162006124
 21
5.9510229156
 31
0.0
  0
LINE
  5
27C
330
1F
100
AcDbEntity
  8
0
  6
CONTINUOUS
 62
     7
100
AcDbLine
 10
4.4289175498
 20
5.970707955
 30
0.0
 11
4.4289175498
 21
5.9510229156
 31
0.0
  0
LINE
  5
27D
330
1F
100
AcDbEntity
  8
0
  6
CONTINUOUS
 62
     7
100
AcDbLine
 10
4.6679137759
 20
5.3053536243
 30
0.0
 11
4.0773625948
 21
5.3053536243
 31
0.0
  0
ARC
  5
27E
330
1F
100
AcDbEntity
  8
0
  6
CONTINUOUS
 62
     7
100
AcDbCircle
 10
4.0773625948
 20
5.3250386637
 30
0.0
 40
0.0196850393700787
100
AcDbArc
 50
180.7890941956
 51
270.0
  0
LINE
  5
27F
330
1F
100
AcDbEntity
  8
0
  6
CONTINUOUS
 62
     7
100
AcDbLine
 10
4.6679137759
 20
5.3237812429
 30
0.0
 11
4.6875586141
 21
5.3237812429
 31
0.0
  0
ARC
  5
280
330
1F
100
AcDbEntity
  8
0
  6
CONTINUOUS
 62
     7
100
AcDbCircle
 10
4.6679137759
 20
5.3250386637
 30
0.0
 40
0.0196850393700788
100
AcDbArc
 50
270.0
 51
356.3376253745
  0
LINE
  5
281
330
1F
100
AcDbEntity
  8
0
  6
CONTINUOUS
 62
     7
100
AcDbLine
 10
4.0773625948
 20
5.3247675641
 30
0.0
 11
4.0576794223
 21
5.3247675641
 31
0.0
  0
LINE
  5
282
330
1F
100
AcDbEntity
  8
0
  6
CONTINUOUS
 62
     7
100
AcDbLine
 10
4.0773625948
 20
5.3247675641
 30
0.0
 11
4.0773625948
 21
5.3250386637
 31
0.0
  0
LINE
  5
283
330
1F
100
AcDbEntity
  8
0
  6
CONTINUOUS
 62
     7
100
AcDbLine
 10
4.6679137759
 20
5.3250386637
 30
0.0
 11
4.6679137759
 21
5.3237812429
 31
0.0
  0
ARC
  5
284
330
1F
100
AcDbEntity
  8
0
  6
CONTINUOUS
 62
     7
100
AcDbCircle
 10
4.0773625948
 20
5.3250386637
 30
0.0
 40
0.0196850393700787
100
AcDbArc
 50
180.0
 51
180.7890941956
  0
ARC
  5
285
330
1F
100
AcDbEntity
  8
0
  6
CONTINUOUS
 62
     7
100
AcDbCircle
 10
4.6679137759
 20
5.3250386637
 30
0.0
 40
0.0196850393700796
100
AcDbArc
 50
356.3376253745
 51
0.0
  0
LINE
  5
286
330
1F
100
AcDbEntity
  8
0
  6
CONTINUOUS
 62
     7
100
AcDbLine
 10
4.4316933034
 20
6.1504626905
 30
0.0
 11
4.3135830672
 21
6.1504626905
 31
0.0
  0
LINE
  5
287
330
1F
100
AcDbEntity
  8
0
  6
CONTINUOUS
 62
     7
100
AcDbLine
 10
4.4316933034
 20
6.0100780337
 30
0.0
 11
4.4316933034
 21
6.1504626905
 31
0.0
  0
LINE
  5
288
330
1F
100
AcDbEntity
  8
0
  6
CONTINUOUS
 62
     7
100
AcDbLine
 10
4.3135830672
 20
6.0100780337
 30
0.0
 11
4.4316933034
 21
6.0100780337
 31
0.0
  0
ELLIPSE
  5
289
330
1F
100
AcDbEntity
  8
0
  6
CONTINUOUS
 62
     7
100
AcDbEllipse
 10
4.3726381853
 20
6.0866260158
 30
0.0
 11
0.03937007874015741
 21
0.0
 31
0.0
210
0.0
220
0.0
230
1.0
 40
0.7496107123
 41
1.570796326794897
 42
3.141592653589793
  0
ELLIPSE
  5
28A
330
1F
100
AcDbEntity
  8
0
  6
CONTINUOUS
 62
     7
100
AcDbEllipse
 10
4.3726381853
 20
6.0866260158
 30
0.0
 11
0.03937007874015741
 21
0.0
 31
0.0
210
0.0
220
0.0
230
1.0
 40
0.7496107123
 41
0.0
 42
1.570796326794919
  0
LINE
  5
28B
330
1F
100
AcDbEntity
  8
0
  6
CONTINUOUS
 62
     7
100
AcDbLine
 10
4.3135830672
 20
6.0100780337
 30
0.0
 11
4.3135830672
 21
6.1504626905
 31
0.0
  0
LINE
  5
28C
330
1F
100
AcDbEntity
  8
0
  6
CONTINUOUS
 62
     7
100
AcDbLine
 10
4.4316933034
 20
6.15850085
 30
0.0
 11
4.3135830672
 21
6.15850085
 31
0.0
  0
LINE
  5
28D
330
1F
100
AcDbEntity
  8
0
  6
CONTINUOUS
 62
     7
100
AcDbLine
 10
4.4316933034
 20
6.1504626905
 30
0.0
 11
4.4316933034
 21
6.15850085
 31
0.0
  0
LINE
  5
28E
330
1F
100
AcDbEntity
  8
0
  6
CONTINUOUS
 62
     7
100
AcDbLine
 10
4.3135830672
 20
6.1504626905
 30
0.0
 11
4.3135830672
 21
6.15850085
 31
0.0
  0
LINE
  5
28F
330
1F
100
AcDbEntity
  8
0
  6
CONTINUOUS
 62
     7
100
AcDbLine
 10
4.305968598
 20
6.1384828112
 30
0.0
 11
4.305968598
 21
6.146415878
 31
0.0
  0
ARC
  5
290
330
1F
100
AcDbEntity
  8
0
  6
CONTINUOUS
 62
     7
100
AcDbCircle
 10
4.3196688865
 20
6.1456370702
 30
0.0
 40
0.0137224067267959
100
AcDbArc
 50
116.3270918991
 51
176.746460795
  0
ARC
  5
291
330
1F
100
AcDbEntity
  8
0
  6
CONTINUOUS
 62
     7
100
AcDbCircle
 10
4.3196688865
 20
6.1377040035
 30
0.0
 40
0.0137224067267922
100
AcDbArc
 50
116.3270918991
 51
176.746460795
  0
ARC
  5
292
330
1F
100
AcDbEntity
  8
0
  6
CONTINUOUS
 62
     7
100
AcDbCircle
 10
4.4253894898
 20
6.1458865683
 30
0.0
 40
0.0135989107245185
100
AcDbArc
 50
3.0715534726
 51
62.3833957186
  0
LINE
  5
293
330
1F
100
AcDbEntity
  8
0
  6
CONTINUOUS
 62
     7
100
AcDbLine
 10
4.4389688643
 20
6.1466152394
 30
0.0
 11
4.4389688643
 21
6.1386821727
 31
0.0
  0
ARC
  5
294
330
1F
100
AcDbEntity
  8
0
  6
CONTINUOUS
 62
     7
100
AcDbCircle
 10
4.4253894898
 20
6.1379535016
 30
0.0
 40
0.0135989107245149
100
AcDbArc
 50
3.0715534726
 51
62.3833957186
  0
ARC
  5
295
330
1F
100
AcDbEntity
  8
0
  6
CONTINUOUS
 62
     7
100
AcDbCircle
 10
4.3066664134
 20
6.0251728829
 30
0.0
 40
0.0070109127603949
100
AcDbArc
 50
9.4058809634
 51
95.712264623
  0
LINE
  5
296
330
1F
100
AcDbEntity
  8
0
  6
CONTINUOUS
 62
     7
100
AcDbLine
 10
4.305968598
 20
6.0321489815
 30
0.0
 11
4.305968598
 21
6.1384828112
 31
0.0
  0
ARC
  5
297
330
1F
100
AcDbEntity
  8
0
  6
CONTINUOUS
 62
     7
100
AcDbCircle
 10
4.4385173013
 20
6.0252552784
 30
0.0
 40
0.0069084767755207
100
AcDbArc
 50
86.2522688298
 51
171.0305812035
  0
LINE
  5
298
330
1F
100
AcDbEntity
  8
0
  6
CONTINUOUS
 62
     7
100
AcDbLine
 10
4.4389688643
 20
6.1386821727
 30
0.0
 11
4.4389688643
 21
6.0321489815
 31
0.0
  0
LWPOLYLINE
  5
299
330
1F
100
AcDbEntity
  8
0
  6
CONTINUOUS
 62
     7
100
AcDbPolyline
 90
       28
 70
   128
 43
0.0
 10
4.3726381853
 20
6.1043172137
 10
4.3799016773
 20
6.1036882433
 10
4.3867735926
 20
6.1018352401
 10
4.3928834644
 20
6.0988580999
 10
4.3979019079
 20
6.0949173211
 10
4.4015583777
 20
6.0902253522
 10
4.4036557524
 20
6.0850351384
 10
4.404080962
 20
6.0796264855
 10
4.4028110834
 20
6.0742909753
 10
4.399914576
 20
6.0693162466
 10
4.3955475914
 20
6.0649704883
 10
4.3899455547
 20
6.0614879813
 10
4.3834104733
 20
6.0590564686
 10
4.3762946551
 20
6.0578070335
 10
4.3689817156
 20
6.0578070335
 10
4.3618658974
 20
6.0590564686
 10
4.3553308159
 20
6.0614879813
 10
4.3497287793
 20
6.0649704883
 10
4.3453617947
 20
6.0693162466
 10
4.3424652873
 20
6.0742909753
 10
4.3411954087
 20
6.0796264855
 10
4.3416206183
 20
6.0850351384
 10
4.343717993
 20
6.0902253522
 10
4.3473744627
 20
6.0949173211
 10
4.3523929063
 20
6.0988580999
 10
4.3585027781
 20
6.1018352401
 10
4.3653746933
 20
6.1036882433
 10
4.3726381853
 20
6.1043172137
  0
ARC
  5
29A
330
1F
100
AcDbEntity
  8
0
  6
CONTINUOUS
 62
     7
100
AcDbCircle
 10
4.3726381853
 20
6.1065549556
 30
0.0
 40
0.0350789842147621
100
AcDbArc
 50
211.4445079664
 51
328.5554920336
  0
LINE
  5
29B
330
1F
100
AcDbEntity
  8
0
  6
CONTINUOUS
 62
     7
100
AcDbLine
 10
4.0297295262
 20
5.0927551991
 30
0.0
 11
4.0423261114
 21
5.0927551991
 31
0.0
  0
LINE
  5
29C
330
1F
100
AcDbEntity
  8
0
  6
CONTINUOUS
 62
     7
100
AcDbLine
 10
4.6378434185
 20
5.0927551991
 30
0.0
 11
4.7155468445
 21
5.0927551991
 31
0.0
  0
LINE
  5
29D
330
1F
100
AcDbEntity
  8
0
  6
CONTINUOUS
 62
     7
100
AcDbLine
 10
4.3169872504
 20
5.0927551991
 30
0.0
 11
4.6235268893
 21
5.0927551991
 31
0.0
  0
LINE
  5
29E
330
1F
100
AcDbEntity
  8
0
  6
CONTINUOUS
 62
     7
100
AcDbLine
 10
4.0517820173
 20
5.0927551991
 30
0.0
 11
4.295645127
 21
5.0927551991
 31
0.0
  0
LINE
  5
29F
330
1F
100
AcDbEntity
  8
0
  6
CONTINUOUS
 62
     7
100
AcDbLine
 10
4.0297295262
 20
5.1124402385
 30
0.0
 11
4.7155468445
 21
5.1124402385
 31
0.0
  0
LWPOLYLINE
  5
2A0
330
1F
100
AcDbEntity
  8
0
  6
CONTINUOUS
 62
     7
100
AcDbPolyline
 90
        3
 70
   128
 43
0.0
 10
4.2385283109
 20
5.0140150416
 10
4.2597861017
 20
5.0228919184
 10
4.2806455946
 20
5.033700081
  0
LINE
  5
2A1
330
1F
100
AcDbEntity
  8
0
  6
CONTINUOUS
 62
     7
100
AcDbLine
 10
4.2385283109
 20
5.0140150416
 30
0.0
 11
4.1088988335
 21
5.0140150416
 31
0.0
  0
LWPOLYLINE
  5
2A2
330
1F
100
AcDbEntity
  8
0
  6
CONTINUOUS
 62
     7
100
AcDbPolyline
 90
        3
 70
   128
 43
0.0
 10
4.0667815497
 20
5.033700081
 10
4.0875453969
 20
5.0229368814
 10
4.1088988335
 20
5.0140150416
  0
LINE
  5
2A3
330
1F
100
AcDbEntity
  8
0
  6
CONTINUOUS
 62
     7
100
AcDbLine
 10
4.0667815497
 20
5.033700081
 30
0.0
 11
4.0423261114
 21
5.033700081
 31
0.0
  0
LINE
  5
2A4
330
1F
100
AcDbEntity
  8
0
  6
CONTINUOUS
 62
     7
100
AcDbLine
 10
4.0423261114
 20
5.033700081
 30
0.0
 11
4.0423261114
 21
5.0927551991
 31
0.0
  0
LINE
  5
2A5
330
1F
100
AcDbEntity
  8
0
  6
CONTINUOUS
 62
     7
100
AcDbLine
 10
4.0517820173
 20
5.0927551991
 30
0.0
 11
4.0423261114
 21
5.0927551991
 31
0.0
  0
LINE
  5
2A6
330
1F
100
AcDbEntity
  8
0
  6
CONTINUOUS
 62
     7
100
AcDbLine
 10
4.3051010329
 20
5.0927551991
 30
0.0
 11
4.295645127
 21
5.0927551991
 31
0.0
  0
LINE
  5
2A7
330
1F
100
AcDbEntity
  8
0
  6
CONTINUOUS
 62
     7
100
AcDbLine
 10
4.3051010329
 20
5.033700081
 30
0.0
 11
4.3051010329
 21
5.0927551991
 31
0.0
  0
LINE
  5
2A8
330
1F
100
AcDbEntity
  8
0
  6
CONTINUOUS
 62
     7
100
AcDbLine
 10
4.3051010329
 20
5.033700081
 30
0.0
 11
4.2806455946
 21
5.033700081
 31
0.0
  0
LWPOLYLINE
  5
2A9
330
1F
100
AcDbEntity
  8
0
  6
CONTINUOUS
 62
     7
100
AcDbPolyline
 90
        3
 70
   128
 43
0.0
 10
4.5517301824
 20
5.0140150416
 10
4.5784515489
 20
5.0228919184
 10
4.6046722488
 20
5.033700081
  0
LINE
  5
2AA
330
1F
100
AcDbEntity
  8
0
  6
CONTINUOUS
 62
     7
100
AcDbLine
 10
4.5517301824
 20
5.0140150416
 30
0.0
 11
4.3887839573
 21
5.0140150416
 31
0.0
  0
LWPOLYLINE
  5
2AB
330
1F
100
AcDbEntity
  8
0
  6
CONTINUOUS
 62
     7
100
AcDbPolyline
 90
        3
 70
   128
 43
0.0
 10
4.3358418909
 20
5.033700081
 10
4.3619423626
 20
5.0229368814
 10
4.3887839573
 20
5.0140150416
  0
LINE
  5
2AC
330
1F
100
AcDbEntity
  8
0
  6
CONTINUOUS
 62
     7
100
AcDbLine
 10
4.3358418909
 20
5.033700081
 30
0.0
 11
4.3051010329
 21
5.033700081
 31
0.0
  0
LINE
  5
2AD
330
1F
100
AcDbEntity
  8
0
  6
CONTINUOUS
 62
     7
100
AcDbLine
 10
4.3169872504
 20
5.0927551991
 30
0.0
 11
4.3051010329
 21
5.0927551991
 31
0.0
  0
LINE
  5
2AE
330
1F
100
AcDbEntity
  8
0
  6
CONTINUOUS
 62
     7
100
AcDbLine
 10
4.6354131068
 20
5.0927551991
 30
0.0
 11
4.6235268893
 21
5.0927551991
 31
0.0
  0
LINE
  5
2AF
330
1F
100
AcDbEntity
  8
0
  6
CONTINUOUS
 62
     7
100
AcDbLine
 10
4.6354131068
 20
5.033700081
 30
0.0
 11
4.6354131068
 21
5.0927551991
 31
0.0
  0
LINE
  5
2B0
330
1F
100
AcDbEntity
  8
0
  6
CONTINUOUS
 62
     7
100
AcDbLine
 10
4.6354131068
 20
5.033700081
 30
0.0
 11
4.6046722488
 21
5.033700081
 31
0.0
  0
LINE
  5
2B1
330
1F
100
AcDbEntity
  8
0
  6
CONTINUOUS
 62
     7
100
AcDbLine
 10
4.3887839573
 20
5.0140150416
 30
0.0
 11
4.2385283109
 21
5.0140150416
 31
0.0
  0
LINE
  5
2B2
330
1F
100
AcDbEntity
  8
0
  6
CONTINUOUS
 62
     7
100
AcDbLine
 10
4.2960917032
 20
5.2738575613
 30
0.0
 11
4.2480823847
 21
5.2541725219
 31
0.0
  0
LINE
  5
2B3
330
1F
100
AcDbEntity
  8
0
  6
CONTINUOUS
 62
     7
100
AcDbLine
 10
4.5171719143
 20
5.2738575613
 30
0.0
 11
4.2960917032
 21
5.2738575613
 31
0.0
  0
LINE
  5
2B4
330
1F
100
AcDbEntity
  8
0
  6
CONTINUOUS
 62
     7
100
AcDbLine
 10
4.5651812328
 20
5.2541725219
 30
0.0
 11
4.5171719143
 21
5.2738575613
 31
0.0
  0
LINE
  5
2B5
330
1F
100
AcDbEntity
  8
0
  6
CONTINUOUS
 62
     7
100
AcDbLine
 10
4.5651812328
 20
5.2541725219
 30
0.0
 11
4.5802855009
 21
5.2541725219
 31
0.0
  0
LINE
  5
2B6
330
1F
100
AcDbEntity
  8
0
  6
CONTINUOUS
 62
     7
100
AcDbLine
 10
4.5802855009
 20
5.1951174038
 30
0.0
 11
4.5802855009
 21
5.2541725219
 31
0.0
  0
LINE
  5
2B7
330
1F
100
AcDbEntity
  8
0
  6
CONTINUOUS
 62
     7
100
AcDbLine
 10
4.5802855009
 20
5.1951174038
 30
0.0
 11
4.2329781166
 21
5.1951174038
 31
0.0
  0
LINE
  5
2B8
330
1F
100
AcDbEntity
  8
0
  6
CONTINUOUS
 62
     7
100
AcDbLine
 10
4.2329781166
 20
5.1951174038
 30
0.0
 11
4.2329781166
 21
5.2541725219
 31
0.0
  0
LINE
  5
2B9
330
1F
100
AcDbEntity
  8
0
  6
CONTINUOUS
 62
     7
100
AcDbLine
 10
4.2329781166
 20
5.2541725219
 30
0.0
 11
4.2480823847
 21
5.2541725219
 31
0.0
  0
LINE
  5
2BA
330
1F
100
AcDbEntity
  8
0
  6
CONTINUOUS
 62
     7
100
AcDbLine
 10
4.0630650026
 20
5.2738575613
 30
0.0
 11
4.0343613051
 21
5.2541725219
 31
0.0
  0
LINE
  5
2BB
330
1F
100
AcDbEntity
  8
0
  6
CONTINUOUS
 62
     7
100
AcDbLine
 10
4.1952439151
 20
5.2738575613
 30
0.0
 11
4.0630650026
 21
5.2738575613
 31
0.0
  0
LINE
  5
2BC
330
1F
100
AcDbEntity
  8
0
  6
CONTINUOUS
 62
     7
100
AcDbLine
 10
4.2239476126
 20
5.2541725219
 30
0.0
 11
4.1952439151
 21
5.2738575613
 31
0.0
  0
LINE
  5
2BD
330
1F
100
AcDbEntity
  8
0
  6
CONTINUOUS
 62
     7
100
AcDbLine
 10
4.2239476126
 20
5.2541725219
 30
0.0
 11
4.2329781166
 21
5.2541725219
 31
0.0
  0
LINE
  5
2BE
330
1F
100
AcDbEntity
  8
0
  6
CONTINUOUS
 62
     7
100
AcDbLine
 10
4.2329781166
 20
5.1951174038
 30
0.0
 11
4.025330801
 21
5.1951174038
 31
0.0
  0
LINE
  5
2BF
330
1F
100
AcDbEntity
  8
0
  6
CONTINUOUS
 62
     7
100
AcDbLine
 10
4.025330801
 20
5.1951174038
 30
0.0
 11
4.025330801
 21
5.2541725219
 31
0.0
  0
LINE
  5
2C0
330
1F
100
AcDbEntity
  8
0
  6
CONTINUOUS
 62
     7
100
AcDbLine
 10
4.025330801
 20
5.2541725219
 30
0.0
 11
4.0343613051
 21
5.2541725219
 31
0.0
  0
LINE
  5
2C1
330
1F
100
AcDbEntity
  8
0
  6
CONTINUOUS
 62
     7
100
AcDbLine
 10
4.1952439151
 20
5.2738575613
 30
0.0
 11
4.2960917032
 21
5.2738575613
 31
0.0
  0
LINE
  5
2C2
330
1F
100
AcDbEntity
  8
0
  6
CONTINUOUS
 62
     7
100
AcDbLine
 10
4.605664886
 20
5.2738575613
 30
0.0
 11
4.586359265
 21
5.2541725219
 31
0.0
  0
LINE
  5
2C3
330
1F
100
AcDbEntity
  8
0
  6
CONTINUOUS
 62
     7
100
AcDbLine
 10
4.5171719143
 20
5.2738575613
 30
0.0
 11
4.605664886
 21
5.2738575613
 31
0.0
  0
LINE
  5
2C4
330
1F
100
AcDbEntity
  8
0
  6
CONTINUOUS
 62
     7
100
AcDbLine
 10
4.7138718055
 20
5.2541725219
 30
0.0
 11
4.6945661845
 21
5.2738575613
 31
0.0
  0
LINE
  5
2C5
330
1F
100
AcDbEntity
  8
0
  6
CONTINUOUS
 62
     7
100
AcDbLine
 10
4.7138718055
 20
5.2541725219
 30
0.0
 11
4.7199455696
 21
5.2541725219
 31
0.0
  0
LINE
  5
2C6
330
1F
100
AcDbEntity
  8
0
  6
CONTINUOUS
 62
     7
100
AcDbLine
 10
4.7199455696
 20
5.1951174038
 30
0.0
 11
4.7199455696
 21
5.2541725219
 31
0.0
  0
LINE
  5
2C7
330
1F
100
AcDbEntity
  8
0
  6
CONTINUOUS
 62
     7
100
AcDbLine
 10
4.5802855009
 20
5.2541725219
 30
0.0
 11
4.586359265
 21
5.2541725219
 31
0.0
  0
LINE
  5
2C8
330
1F
100
AcDbEntity
  8
0
  6
CONTINUOUS
 62
     7
100
AcDbLine
 10
4.6945661845
 20
5.2738575613
 30
0.0
 11
4.605664886
 21
5.2738575613
 31
0.0
  0
LINE
  5
2C9
330
1F
100
AcDbEntity
  8
0
  6
CONTINUOUS
 62
     7
100
AcDbLine
 10
4.7199455696
 20
5.1951174038
 30
0.0
 11
4.5802855009
 21
5.1951174038
 31
0.0
  0
LINE
  5
2CA
330
1F
100
AcDbEntity
  8
0
  6
CONTINUOUS
 62
     7
100
AcDbLine
 10
4.6210771573
 20
5.2856685849
 30
0.0
 11
4.1241992135
 21
5.2856685849
 31
0.0
  0
LWPOLYLINE
  5
2CB
330
1F
100
AcDbEntity
  8
0
  6
CONTINUOUS
 62
     7
100
AcDbPolyline
 90
        3
 70
   128
 43
0.0
 10
4.6416985265
 20
5.033700081
 10
4.6470351511
 20
5.0229368814
 10
4.6525233091
 20
5.0140150416
  0
LINE
  5
2CC
330
1F
100
AcDbEntity
  8
0
  6
CONTINUOUS
 62
     7
100
AcDbLine
 10
4.6525233091
 20
5.0140150416
 30
0.0
 11
4.5517301824
 21
5.0140150416
 31
0.0
  0
LINE
  5
2CD
330
1F
100
AcDbEntity
  8
0
  6
CONTINUOUS
 62
     7
100
AcDbLine
 10
4.4316933034
 20
6.0100780337
 30
0.0
 11
4.4316933034
 21
5.970707955
 31
0.0
  0
LINE
  5
2CE
330
1F
100
AcDbEntity
  8
0
  6
CONTINUOUS
 62
     7
100
AcDbLine
 10
4.3135830672
 20
6.0100780337
 30
0.0
 11
4.3135830672
 21
5.970707955
 31
0.0
  0
LINE
  5
2CF
330
1F
100
AcDbEntity
  8
0
  6
CONTINUOUS
 62
     7
100
AcDbLine
 10
4.3968877512
 20
5.2738575613
 30
0.0
 11
4.3968877512
 21
5.2856685849
 31
0.0
  0
LINE
  5
2D0
330
1F
100
AcDbEntity
  8
0
  6
CONTINUOUS
 62
     7
100
AcDbLine
 10
4.3505624434
 20
5.2856685849
 30
0.0
 11
4.3505624434
 21
5.2738575613
 31
0.0
  0
ARC
  5
2D1
330
1F
100
AcDbEntity
  8
0
  6
CONTINUOUS
 62
     7
100
AcDbCircle
 10
4.260168726
 20
5.7386589611
 30
0.0
 40
0.4648037424703038
100
AcDbArc
 50
257.0546498153
 51
269.8180881269
  0
ARC
  5
2D2
330
1F
100
AcDbEntity
  8
0
  6
CONTINUOUS
 62
     7
100
AcDbCircle
 10
4.4854036511
 20
5.7363786158
 30
0.0
 40
0.4625225590111983
100
AcDbArc
 50
270.1461406157
 51
282.9769089382
  0
LINE
  5
2D3
330
1F
100
AcDbEntity
  8
0
  6
CONTINUOUS
 62
     7
100
AcDbLine
 10
4.4316933034
 20
5.9903929944
 30
0.0
 11
4.4353436941
 21
5.9903929944
 31
0.0
  0
LINE
  5
2D4
330
1F
100
AcDbEntity
  8
0
  6
CONTINUOUS
 62
     7
100
AcDbLine
 10
4.3135830672
 20
5.9903929944
 30
0.0
 11
4.3125316961
 21
5.9903929944
 31
0.0
  0
ARC
  5
2D5
330
1F
100
AcDbEntity
  8
0
  6
CONTINUOUS
 62
     7
100
AcDbCircle
 10
4.3495808126
 20
6.4665175314
 30
0.0
 40
1.282416023405818
100
AcDbArc
 50
262.484732483
 51
270.0438573038
  0
LINE
  5
2D6
330
1F
100
AcDbEntity
  8
0
  6
CONTINUOUS
 62
     7
100
AcDbLine
 10
4.3505624434
 20
5.1951174038
 30
0.0
 11
4.3505624434
 21
5.1841018837
 31
0.0
  0
LINE
  5
2D7
330
1F
100
AcDbEntity
  8
0
  6
CONTINUOUS
 62
     7
100
AcDbLine
 10
4.3505624434
 20
5.1841018837
 30
0.0
 11
4.3505624434
 21
5.1749665162
 31
0.0
  0
ARC
  5
2D8
330
1F
100
AcDbEntity
  8
0
  6
CONTINUOUS
 62
     7
100
AcDbCircle
 10
4.3125471737
 20
5.8836116914
 30
0.0
 40
0.7096641072192417
100
AcDbArc
 50
255.9700748658
 51
273.070688696
  0
LINE
  5
2D9
330
1F
100
AcDbEntity
  8
0
  6
CONTINUOUS
 62
     7
100
AcDbLine
 10
4.3968877512
 20
5.1841268232
 30
0.0
 11
4.3968877512
 21
5.1951174038
 31
0.0
  0
ARC
  5
2DA
330
1F
100
AcDbEntity
  8
0
  6
CONTINUOUS
 62
     7
100
AcDbCircle
 10
4.392163503
 20
6.5229263898
 30
0.0
 40
1.338807901911827
100
AcDbArc
 50
270.202179901
 51
277.3493886405
  0
LINE
  5
2DB
330
1F
100
AcDbEntity
  8
0
  6
CONTINUOUS
 62
     7
100
AcDbLine
 10
4.3968877512
 20
5.1647425968
 30
0.0
 11
4.3968877512
 21
5.1749885345
 31
0.0
  0
ARC
  5
2DC
330
1F
100
AcDbEntity
  8
0
  6
CONTINUOUS
 62
     7
100
AcDbCircle
 10
4.4298064953
 20
5.9185596362
 30
0.0
 40
0.7442994201965122
100
AcDbArc
 50
267.4651054458
 51
283.5959978755
  0
ARC
  5
2DD
330
1F
100
AcDbEntity
  8
0
  6
CONTINUOUS
 62
     7
100
AcDbCircle
 10
4.4265047328
 20
5.8283498913
 30
0.0
 40
0.6642678728795014
100
AcDbArc
 50
267.4445689153
 51
283.6153918934
  0
LINE
  5
2DE
330
1F
100
AcDbEntity
  8
0
  6
CONTINUOUS
 62
     7
100
AcDbLine
 10
4.3968877512
 20
5.1749885345
 30
0.0
 11
4.3968877512
 21
5.1841268232
 31
0.0
  0
LINE
  5
2DF
330
1F
100
AcDbEntity
  8
0
  6
CONTINUOUS
 62
     7
100
AcDbLine
 10
4.3505624434
 20
5.1749665162
 30
0.0
 11
4.3505624434
 21
5.1647180456
 31
0.0
  0
ARC
  5
2E0
330
1F
100
AcDbEntity
  8
0
  6
CONTINUOUS
 62
     7
100
AcDbCircle
 10
4.3161624451
 20
5.7965171686
 30
0.0
 40
0.6327349300521371
100
AcDbArc
 50
255.9356749354
 51
273.1165451497
  0
LINE
  5
2E1
330
1F
100
AcDbEntity
  8
0
  6
CONTINUOUS
 62
     7
100
AcDbLine
 10
4.3505624434
 20
5.1524811065
 30
0.0
 11
4.3505624434
 21
5.1348892852
 31
0.0
  0
LWPOLYLINE
  5
2E2
330
1F
100
AcDbEntity
  8
0
  6
CONTINUOUS
 62
     7
100
AcDbPolyline
 90
       17
 70
   128
 43
0.0
 10
4.3505624434
 20
5.1348892852
 10
4.3293938521
 20
5.1352335993
 10
4.3084106699
 20
5.1358041092
 10
4.2719238982
 20
5.1373864837
 10
4.2542341724
 20
5.1384580031
 10
4.237279381
 20
5.1397038318
 10
4.2072583599
 20
5.1425614803
 10
4.193584381
 20
5.144225407
 10
4.1811148374
 20
5.1460200278
 10
4.1608945629
 20
5.1498041015
 10
4.1527645267
 20
5.1518602722
 10
4.1461843395
 20
5.1539903266
 10
4.1381667274
 20
5.1582481437
 10
4.1365731553
 20
5.1604544986
 10
4.1367109549
 20
5.1626719425
 10
4.1385090583
 20
5.1647976409
 10
4.1407914828
 20
5.1661896852
  0
LWPOLYLINE
  5
2E3
330
1F
100
AcDbEntity
  8
0
  6
CONTINUOUS
 62
     7
100
AcDbPolyline
 90
       20
 70
   128
 43
0.0
 10
4.6040926313
 20
5.1661800413
 10
4.6084260655
 20
5.1629462101
 10
4.6087853742
 20
5.1607479283
 10
4.6074057155
 20
5.1585264887
 10
4.6044147045
 20
5.1563846953
 10
4.5997778096
 20
5.1542518495
 10
4.593388253
 20
5.1521132248
 10
4.5853091308
 20
5.1500168976
 10
4.5760116666
 20
5.1480662081
 10
4.5652179413
 20
5.146187112
 10
4.5527800944
 20
5.1443703041
 10
4.5389009085
 20
5.1426608993
 10
4.524390776
 20
5.1411469894
 10
4.5087112662
 20
5.1397615204
 10
4.4916921431
 20
5.1385016153
 10
4.4736542041
 20
5.137402972
 10
4.4369414365
 20
5.1358065968
 10
4.4173533016
 20
5.1352660231
 10
4.3972867413
 20
5.1349190589
 10
4.3968877512
 20
5.1349142247
  0
LINE
  5
2E4
330
1F
100
AcDbEntity
  8
0
  6
CONTINUOUS
 62
     7
100
AcDbLine
 10
4.3968877512
 20
5.1349142247
 30
0.0
 11
4.3968877512
 21
5.1525056577
 31
0.0
  0
ARC
  5
2E5
330
1F
100
AcDbEntity
  8
0
  6
CONTINUOUS
 62
     7
100
AcDbCircle
 10
4.4405484523
 20
5.6034953104
 30
0.0
 40
0.4530981391033626
100
AcDbArc
 50
264.4703778908
 51
288.7755285162
  0
ARC
  5
2E6
330
1F
100
AcDbEntity
  8
0
  6
CONTINUOUS
 62
     7
100
AcDbCircle
 10
4.3039302469
 20
5.5916354628
 30
0.0
 40
0.4416232674618749
100
AcDbArc
 50
250.8272071305
 51
276.0613160403
  0
LWPOLYLINE
  5
2E7
330
1F
100
AcDbEntity
  8
0
  6
CONTINUOUS
 62
     7
100
AcDbPolyline
 90
       14
 70
   128
 43
0.0
 10
4.3505624434
 20
5.1257539178
 10
4.322531752
 20
5.1262004461
 10
4.2948297965
 20
5.1270045644
 10
4.2591822182
 20
5.1286415093
 10
4.2420604931
 20
5.1297130753
 10
4.2257673987
 20
5.1309430618
 10
4.1972841051
 20
5.1337341218
 10
4.1845089308
 20
5.1353523541
 10
4.1730130289
 20
5.1370973297
 10
4.1548803998
 20
5.1407815484
 10
4.147888597
 20
5.1427925961
 10
4.142491093
 20
5.1448846168
 10
4.1368503052
 20
5.1490940625
 10
4.1365957349
 20
5.1506515453
  0
LWPOLYLINE
  5
2E8
330
1F
100
AcDbEntity
  8
0
  6
CONTINUOUS
 62
     7
100
AcDbPolyline
 90
       18
 70
   128
 43
0.0
 10
4.6086451627
 20
5.1506516018
 10
4.6085654158
 20
5.1493683301
 10
4.6067673124
 20
5.1472426317
 10
4.6033140628
 20
5.1451365045
 10
4.5981068153
 20
5.1430346782
 10
4.5911822319
 20
5.1409832427
 10
4.582961689
 20
5.1390823276
 10
4.5732046691
 20
5.1372557653
 10
4.5617693444
 20
5.1354921256
 10
4.5488347395
 20
5.1338324214
 10
4.5351629716
 20
5.1323592865
 10
4.5202543338
 20
5.1310048894
 10
4.5039419299
 20
5.1297632471
 10
4.486527471
 20
5.1286661275
 10
4.4507085316
 20
5.1270140037
 10
4.4314335683
 20
5.1264123436
 10
4.4115790349
 20
5.1259799227
 10
4.3968877512
 20
5.1257759361
  0
LINE
  5
2E9
330
1F
100
AcDbEntity
  8
0
  6
CONTINUOUS
 62
     7
100
AcDbLine
 10
4.3968877512
 20
5.1257759361
 30
0.0
 11
4.3968877512
 21
5.1349142247
 31
0.0
  0
LINE
  5
2EA
330
1F
100
AcDbEntity
  8
0
  6
CONTINUOUS
 62
     7
100
AcDbLine
 10
4.3505624434
 20
5.1348892852
 30
0.0
 11
4.3505624434
 21
5.1257539178
 31
0.0
  0
ARC
  5
2EB
330
1F
100
AcDbEntity
  8
0
  6
CONTINUOUS
 62
     7
100
AcDbCircle
 10
4.3156825107
 20
5.7422963398
 30
0.0
 40
0.6277606492572371
100
AcDbArc
 50
255.8670847223
 51
273.1851353628
  0
ARC
  5
2EC
330
1F
100
AcDbEntity
  8
0
  6
CONTINUOUS
 62
     7
100
AcDbCircle
 10
4.4250271133
 20
5.7943992481
 30
0.0
 40
0.6794521924799929
100
AcDbArc
 50
267.6264291328
 51
283.4335316759
  0
LINE
  5
2ED
330
1F
100
AcDbEntity
  8
0
  6
CONTINUOUS
 62
     7
100
AcDbLine
 10
4.3968877512
 20
5.1155299984
 30
0.0
 11
4.3968877512
 21
5.1257759361
 31
0.0
  0
LINE
  5
2EE
330
1F
100
AcDbEntity
  8
0
  6
CONTINUOUS
 62
     7
100
AcDbLine
 10
4.3505624434
 20
5.1257539178
 30
0.0
 11
4.3505624434
 21
5.1155054472
 31
0.0
  0
LINE
  5
2EF
330
1F
100
AcDbEntity
  8
0
  6
CONTINUOUS
 62
     7
100
AcDbLine
 10
4.3968877512
 20
4.9872764295
 30
0.0
 11
4.3968877512
 21
5.0048678625
 31
0.0
  0
ARC
  5
2F0
330
1F
100
AcDbEntity
  8
0
  6
CONTINUOUS
 62
     7
100
AcDbCircle
 10
4.3487603855
 20
6.2385920994
 30
0.0
 40
1.233750104205915
100
AcDbArc
 50
263.0088233237
 51
270.0836882191
  0
ARC
  5
2F1
330
1F
100
AcDbEntity
  8
0
  6
CONTINUOUS
 62
     7
100
AcDbCircle
 10
4.3975487399
 20
6.2251608343
 30
0.0
 40
1.220293150845149
100
AcDbArc
 50
269.9689649473
 51
277.0198050248
  0
LINE
  5
2F2
330
1F
100
AcDbEntity
  8
0
  6
CONTINUOUS
 62
     7
100
AcDbLine
 10
4.3505624434
 20
5.0048433113
 30
0.0
 11
4.3505624434
 21
4.98725149
 31
0.0
  0
LWPOLYLINE
  5
2F3
330
1F
100
AcDbEntity
  8
0
  6
CONTINUOUS
 62
     7
100
AcDbPolyline
 90
       14
 70
   128
 43
0.0
 10
4.3505624434
 20
4.98725149
 10
4.3293057903
 20
4.9875979719
 10
4.3084106699
 20
4.9881663139
 10
4.2835123043
 20
4.989161898
 10
4.2596541216
 20
4.9904710788
 10
4.237279381
 20
4.9920660366
 10
4.2165515048
 20
4.9939385936
 10
4.1977148418
 20
4.9960584487
 10
4.1811148374
 20
4.9983822326
 10
4.1668552745
 20
5.0009026867
 10
4.1551404874
 20
5.0035769427
 10
4.1461843395
 20
5.0063525314
 10
4.1387159275
 20
5.0101618622
 10
4.1365857216
 20
5.0137525253
  0
LWPOLYLINE
  5
2F4
330
1F
100
AcDbEntity
  8
0
  6
CONTINUOUS
 62
     7
100
AcDbPolyline
 90
       15
 70
   128
 43
0.0
 10
4.6087253201
 20
5.0137523126
 10
4.6074057155
 20
5.0108886934
 10
4.6029421013
 20
5.0079895935
 10
4.5955308862
 20
5.0051345968
 10
4.5853091308
 20
5.0023791024
 10
4.5723386105
 20
4.9997542768
 10
4.556772314
 20
4.9972854374
 10
4.5389009085
 20
4.995023104
 10
4.518949044
 20
4.9930042246
 10
4.4970623549
 20
4.99123901
 10
4.4736542041
 20
4.9897651767
 10
4.4490871554
 20
4.9886115887
 10
4.4234693259
 20
4.9877775398
 10
4.3972867413
 20
4.9872812636
 10
4.3968877512
 20
4.9872764295
  0
LWPOLYLINE
  5
2F5
330
1F
100
AcDbEntity
  8
0
  6
CONTINUOUS
 62
     7
100
AcDbPolyline
 90
       14
 70
   128
 43
0.0
 10
4.3505624434
 20
4.9781161225
 10
4.322531752
 20
4.9785626508
 10
4.2948297965
 20
4.9793667691
 10
4.2591822182
 20
4.981003714
 10
4.2420604931
 20
4.98207528
 10
4.2257673987
 20
4.9833052665
 10
4.1972841051
 20
4.9860963265
 10
4.1845089308
 20
4.9877145588
 10
4.1730130289
 20
4.9894595344
 10
4.1548803998
 20
4.9931437532
 10
4.147888597
 20
4.9951548008
 10
4.142491093
 20
4.9972468215
 10
4.1368503052
 20
5.0014562672
 10
4.1365957349
 20
5.00301375
  0
LINE
  5
2F6
330
1F
100
AcDbEntity
  8
0
  6
CONTINUOUS
 62
     7
100
AcDbLine
 10
4.3505624434
 20
4.9781161225
 30
0.0
 11
4.3505624434
 21
4.9678676519
 31
0.0
  0
ARC
  5
2F7
330
1F
100
AcDbEntity
  8
0
  6
CONTINUOUS
 62
     7
100
AcDbCircle
 10
4.3156825107
 20
5.5946585444
 30
0.0
 40
0.6277606491842225
100
AcDbArc
 50
255.8670847214
 51
273.1851353635
  0
ARC
  5
2F8
330
1F
100
AcDbEntity
  8
0
  6
CONTINUOUS
 62
     7
100
AcDbCircle
 10
4.4250271133
 20
5.6467614527
 30
0.0
 40
0.6794521924181985
100
AcDbArc
 50
267.6264291323
 51
283.4335316765
  0
LINE
  5
2F9
330
1F
100
AcDbEntity
  8
0
  6
CONTINUOUS
 62
     7
100
AcDbLine
 10
4.3968877512
 20
4.9678922031
 30
0.0
 11
4.3968877512
 21
4.9781381408
 31
0.0
  0
LWPOLYLINE
  5
2FA
330
1F
100
AcDbEntity
  8
0
  6
CONTINUOUS
 62
     7
100
AcDbPolyline
 90
       18
 70
   128
 43
0.0
 10
4.6086451627
 20
5.0030138065
 10
4.6085654158
 20
5.0017305349
 10
4.6067673124
 20
4.9996048365
 10
4.6033140628
 20
4.9974987092
 10
4.5981068153
 20
4.9953968829
 10
4.5911822319
 20
4.9933454474
 10
4.582961689
 20
4.9914445324
 10
4.5732046691
 20
4.9896179701
 10
4.5617693444
 20
4.9878543303
 10
4.5488347395
 20
4.9861946261
 10
4.5351629716
 20
4.9847214912
 10
4.5202543338
 20
4.9833670941
 10
4.5039419299
 20
4.9821254518
 10
4.486527471
 20
4.9810283322
 10
4.4507085316
 20
4.9793762084
 10
4.4314335683
 20
4.9787745484
 10
4.4115790349
 20
4.9783421274
 10
4.3968877512
 20
4.9781381408
  0
LINE
  5
2FB
330
1F
100
AcDbEntity
  8
0
  6
CONTINUOUS
 62
     7
100
AcDbLine
 10
4.3505624434
 20
4.98725149
 30
0.0
 11
4.3505624434
 21
4.9781161225
 31
0.0
  0
LINE
  5
2FC
330
1F
100
AcDbEntity
  8
0
  6
CONTINUOUS
 62
     7
100
AcDbLine
 10
4.3968877512
 20
4.9781381408
 30
0.0
 11
4.3968877512
 21
4.9872764295
 31
0.0
  0
LWPOLYLINE
  5
2FD
330
1F
100
AcDbEntity
  8
0
  6
CONTINUOUS
 62
     7
100
AcDbPolyline
 90
       14
 70
   128
 43
0.0
 10
4.3505624434
 20
4.9289035241
 10
4.322531752
 20
4.9293500524
 10
4.2948297965
 20
4.9301541706
 10
4.2591822182
 20
4.9317911156
 10
4.2420604931
 20
4.9328626816
 10
4.2257673987
 20
4.9340926681
 10
4.1972841051
 20
4.9368837281
 10
4.1845089308
 20
4.9385019604
 10
4.1730130289
 20
4.940246936
 10
4.1548803998
 20
4.9439311547
 10
4.147888597
 20
4.9459422024
 10
4.142491093
 20
4.9480342231
 10
4.1368503052
 20
4.9522436688
 10
4.1365957349
 20
4.9538011516
  0
LWPOLYLINE
  5
2FE
330
1F
100
AcDbEntity
  8
0
  6
CONTINUOUS
 62
     7
100
AcDbPolyline
 90
       18
 70
   128
 43
0.0
 10
4.6086451627
 20
4.9538012081
 10
4.6085654158
 20
4.9525179364
 10
4.6067673124
 20
4.950392238
 10
4.6033140628
 20
4.9482861108
 10
4.5981068153
 20
4.9461842845
 10
4.5911822319
 20
4.944132849
 10
4.582961689
 20
4.9422319339
 10
4.5732046691
 20
4.9404053716
 10
4.5617693444
 20
4.9386417319
 10
4.5488347395
 20
4.9369820277
 10
4.5351629716
 20
4.9355088928
 10
4.5202543338
 20
4.9341544957
 10
4.5039419299
 20
4.9329128534
 10
4.486527471
 20
4.9318157338
 10
4.4507085316
 20
4.93016361
 10
4.4314335683
 20
4.9295619499
 10
4.4115790349
 20
4.929129529
 10
4.3968877512
 20
4.9289255424
  0
LINE
  5
2FF
330
1F
100
AcDbEntity
  8
0
  6
CONTINUOUS
 62
     7
100
AcDbLine
 10
4.3968877512
 20
4.9289255424
 30
0.0
 11
4.3968877512
 21
4.938063831
 31
0.0
  0
LWPOLYLINE
  5
300
330
1F
100
AcDbEntity
  8
0
  6
CONTINUOUS
 62
     7
100
AcDbPolyline
 90
       17
 70
   128
 43
0.0
 10
4.3505624434
 20
4.9380388915
 10
4.3293938521
 20
4.9383832056
 10
4.3084106699
 20
4.9389537155
 10
4.2719238982
 20
4.94053609
 10
4.2542341724
 20
4.9416076094
 10
4.237279381
 20
4.9428534381
 10
4.2072583599
 20
4.9457110866
 10
4.193584381
 20
4.9473750133
 10
4.1811148374
 20
4.9491696341
 10
4.1608945629
 20
4.9529537078
 10
4.1527645267
 20
4.9550098785
 10
4.1461843395
 20
4.9571399329
 10
4.1381667274
 20
4.96139775
 10
4.1365731553
 20
4.9636041049
 10
4.1367109549
 20
4.9658215488
 10
4.1385090583
 20
4.9679472472
 10
4.1407914828
 20
4.9693392915
  0
LWPOLYLINE
  5
301
330
1F
100
AcDbEntity
  8
0
  6
CONTINUOUS
 62
     7
100
AcDbPolyline
 90
       20
 70
   128
 43
0.0
 10
4.6040926313
 20
4.9693296476
 10
4.6084260655
 20
4.9660958164
 10
4.6087853742
 20
4.9638975346
 10
4.6074057155
 20
4.961676095
 10
4.6044147045
 20
4.9595343016
 10
4.5997778096
 20
4.9574014558
 10
4.593388253
 20
4.9552628311
 10
4.5853091308
 20
4.9531665039
 10
4.5760116666
 20
4.9512158144
 10
4.5652179413
 20
4.9493367183
 10
4.5527800944
 20
4.9475199104
 10
4.5389009085
 20
4.9458105056
 10
4.524390776
 20
4.9442965957
 10
4.5087112662
 20
4.9429111267
 10
4.4916921431
 20
4.9416512216
 10
4.4736542041
 20
4.9405525783
 10
4.4369414365
 20
4.9389562031
 10
4.4173533016
 20
4.9384156294
 10
4.3972867413
 20
4.9380686652
 10
4.3968877512
 20
4.938063831
  0
LINE
  5
302
330
1F
100
AcDbEntity
  8
0
  6
CONTINUOUS
 62
     7
100
AcDbLine
 10
4.3505624434
 20
4.9380388915
 30
0.0
 11
4.3505624434
 21
4.9289035241
 31
0.0
  0
LINE
  5
303
330
1F
100
AcDbEntity
  8
0
  6
CONTINUOUS
 62
     7
100
AcDbLine
 10
4.3968877512
 20
4.938063831
 30
0.0
 11
4.3968877512
 21
4.955655264
 31
0.0
  0
ARC
  5
304
330
1F
100
AcDbEntity
  8
0
  6
CONTINUOUS
 62
     7
100
AcDbCircle
 10
4.303665199
 20
5.3924787235
 30
0.0
 40
0.4393580953898636
100
AcDbArc
 50
250.7610773292
 51
276.1274458416
  0
ARC
  5
305
330
1F
100
AcDbEntity
  8
0
  6
CONTINUOUS
 62
     7
100
AcDbCircle
 10
4.4410099278
 20
5.4026704468
 30
0.0
 40
0.4491874219933045
100
AcDbArc
 50
264.3629376619
 51
288.8829687451
  0
LINE
  5
306
330
1F
100
AcDbEntity
  8
0
  6
CONTINUOUS
 62
     7
100
AcDbLine
 10
4.3505624434
 20
4.9556307128
 30
0.0
 11
4.3505624434
 21
4.9380388915
 31
0.0
  0
ARC
  5
307
330
1F
100
AcDbEntity
  8
0
  6
CONTINUOUS
 62
     7
100
AcDbCircle
 10
4.4249536976
 20
5.5983071467
 30
0.0
 40
0.6802068018217342
100
AcDbArc
 50
267.6352531381
 51
283.4247076706
  0
LINE
  5
308
330
1F
100
AcDbEntity
  8
0
  6
CONTINUOUS
 62
     7
100
AcDbLine
 10
4.3968877512
 20
4.9186796047
 30
0.0
 11
4.3968877512
 21
4.9289255424
 31
0.0
  0
ARC
  5
309
330
1F
100
AcDbEntity
  8
0
  6
CONTINUOUS
 62
     7
100
AcDbCircle
 10
4.3155996755
 20
5.5445815407
 30
0.0
 40
0.6269021953217402
100
AcDbArc
 50
255.8551361161
 51
273.197083969
  0
LINE
  5
30A
330
1F
100
AcDbEntity
  8
0
  6
CONTINUOUS
 62
     7
100
AcDbLine
 10
4.3505624434
 20
4.9289035241
 30
0.0
 11
4.3505624434
 21
4.9186550535
 31
0.0
  0
ARC
  5
30B
330
1F
100
AcDbEntity
  8
0
  6
CONTINUOUS
 62
     7
100
AcDbCircle
 10
4.4409191234
 20
5.3542399037
 30
0.0
 40
0.4499568070084545
100
AcDbArc
 50
264.3842262274
 51
288.8616801796
  0
LWPOLYLINE
  5
30C
330
1F
100
AcDbEntity
  8
0
  6
CONTINUOUS
 62
     7
100
AcDbPolyline
 90
       20
 70
   128
 43
0.0
 10
4.6040926313
 20
4.9201170492
 10
4.6084260655
 20
4.916883218
 10
4.6087853742
 20
4.9146849362
 10
4.6074057155
 20
4.9124634966
 10
4.6044147045
 20
4.9103217031
 10
4.5997778096
 20
4.9081888574
 10
4.593388253
 20
4.9060502327
 10
4.5853091308
 20
4.9039539055
 10
4.5760116666
 20
4.902003216
 10
4.5652179413
 20
4.9001241199
 10
4.5527800944
 20
4.898307312
 10
4.5389009085
 20
4.8965979071
 10
4.524390776
 20
4.8950839972
 10
4.5087112662
 20
4.8936985282
 10
4.4916921431
 20
4.8924386232
 10
4.4736542041
 20
4.8913399799
 10
4.4369414365
 20
4.8897436047
 10
4.4173533016
 20
4.889203031
 10
4.3972867413
 20
4.8888560667
 10
4.3968877512
 20
4.8888512326
  0
LINE
  5
30D
330
1F
100
AcDbEntity
  8
0
  6
CONTINUOUS
 62
     7
100
AcDbLine
 10
4.3968877512
 20
4.8888512326
 30
0.0
 11
4.3968877512
 21
4.9064426656
 31
0.0
  0
LWPOLYLINE
  5
30E
330
1F
100
AcDbEntity
  8
0
  6
CONTINUOUS
 62
     7
100
AcDbPolyline
 90
       14
 70
   128
 43
0.0
 10
4.3505624434
 20
4.8796909256
 10
4.322531752
 20
4.880137454
 10
4.2948297965
 20
4.8809415722
 10
4.2591822182
 20
4.8825785172
 10
4.2420604931
 20
4.8836500832
 10
4.2257673987
 20
4.8848800697
 10
4.1972841051
 20
4.8876711297
 10
4.1845089308
 20
4.889289362
 10
4.1730130289
 20
4.8910343376
 10
4.1548803998
 20
4.8947185563
 10
4.147888597
 20
4.896729604
 10
4.142491093
 20
4.8988216247
 10
4.1368503052
 20
4.9030310704
 10
4.1365957349
 20
4.9045885532
  0
LWPOLYLINE
  5
30F
330
1F
100
AcDbEntity
  8
0
  6
CONTINUOUS
 62
     7
100
AcDbPolyline
 90
       18
 70
   128
 43
0.0
 10
4.6086451627
 20
4.9045886096
 10
4.6085654158
 20
4.903305338
 10
4.6067673124
 20
4.9011796396
 10
4.6033140628
 20
4.8990735123
 10
4.5981068153
 20
4.8969716861
 10
4.5911822319
 20
4.8949202506
 10
4.582961689
 20
4.8930193355
 10
4.5732046691
 20
4.8911927732
 10
4.5617693444
 20
4.8894291334
 10
4.5488347395
 20
4.8877694292
 10
4.5351629716
 20
4.8862962944
 10
4.5202543338
 20
4.8849418973
 10
4.5039419299
 20
4.883700255
 10
4.486527471
 20
4.8826031354
 10
4.4507085316
 20
4.8809510116
 10
4.4314335683
 20
4.8803493515
 10
4.4115790349
 20
4.8799169306
 10
4.3968877512
 20
4.879712944
  0
LINE
  5
310
330
1F
100
AcDbEntity
  8
0
  6
CONTINUOUS
 62
     7
100
AcDbLine
 10
4.3968877512
 20
4.879712944
 30
0.0
 11
4.3968877512
 21
4.8888512326
 31
0.0
  0
LWPOLYLINE
  5
311
330
1F
100
AcDbEntity
  8
0
  6
CONTINUOUS
 62
     7
100
AcDbPolyline
 90
       17
 70
   128
 43
0.0
 10
4.3505624434
 20
4.8888262931
 10
4.3293938521
 20
4.8891706072
 10
4.3084106699
 20
4.8897411171
 10
4.2719238982
 20
4.8913234916
 10
4.2542341724
 20
4.892395011
 10
4.237279381
 20
4.8936408397
 10
4.2072583599
 20
4.8964984882
 10
4.193584381
 20
4.8981624148
 10
4.1811148374
 20
4.8999570357
 10
4.1608945629
 20
4.9037411094
 10
4.1527645267
 20
4.9057972801
 10
4.1461843395
 20
4.9079273345
 10
4.1381667274
 20
4.9121851515
 10
4.1365731553
 20
4.9143915065
 10
4.1367109549
 20
4.9166089503
 10
4.1385090583
 20
4.9187346487
 10
4.1407914828
 20
4.920126693
  0
LINE
  5
312
330
1F
100
AcDbEntity
  8
0
  6
CONTINUOUS
 62
     7
100
AcDbLine
 10
4.3505624434
 20
4.8888262931
 30
0.0
 11
4.3505624434
 21
4.8796909256
 31
0.0
  0
LWPOLYLINE
  5
313
330
1F
100
AcDbEntity
  8
0
  6
CONTINUOUS
 62
     7
100
AcDbPolyline
 90
       18
 70
   128
 43
0.0
 10
4.3505624434
 20
4.9064181144
 10
4.3316783794
 20
4.906710097
 10
4.3131211461
 20
4.9071755089
 10
4.2950388176
 20
4.9078106363
 10
4.2775756782
 20
4.9086104114
 10
4.2608710717
 20
4.9095684526
 10
4.2450582892
 20
4.9106771153
 10
4.2302635058
 20
4.9119275532
 10
4.2166047736
 20
4.9133097887
 10
4.2041910799
 20
4.9148127925
 10
4.1931214772
 20
4.9164245716
 10
4.1834842933
 20
4.9181322652
 10
4.1753564263
 20
4.919922247
 10
4.168802731
 20
4.9217802343
 10
4.1638755012
 20
4.9236914016
 10
4.1606140528
 20
4.9256404991
 10
4.15904441
 20
4.9276119744
 10
4.1588931421
 20
4.9284449738
  0
LINE
  5
314
330
1F
100
AcDbEntity
  8
0
  6
CONTINUOUS
 62
     7
100
AcDbLine
 10
4.3505624434
 20
4.9064181144
 30
0.0
 11
4.3505624434
 21
4.8888262931
 31
0.0
  0
ARC
  5
315
330
1F
100
AcDbEntity
  8
0
  6
CONTINUOUS
 62
     7
100
AcDbCircle
 10
4.3156825107
 20
5.4962333477
 30
0.0
 40
0.6277606492527462
100
AcDbArc
 50
255.8670847223
 51
273.1851353628
  0
ARC
  5
316
330
1F
100
AcDbEntity
  8
0
  6
CONTINUOUS
 62
     7
100
AcDbCircle
 10
4.4250271133
 20
5.548336256
 30
0.0
 40
0.679452192476013
100
AcDbArc
 50
267.6264291328
 51
283.4335316759
  0
LINE
  5
317
330
1F
100
AcDbEntity
  8
0
  6
CONTINUOUS
 62
     7
100
AcDbLine
 10
4.3968877512
 20
4.8694670063
 30
0.0
 11
4.3968877512
 21
4.879712944
 31
0.0
  0
LINE
  5
318
330
1F
100
AcDbEntity
  8
0
  6
CONTINUOUS
 62
     7
100
AcDbLine
 10
4.3505624434
 20
4.8796909256
 30
0.0
 11
4.3505624434
 21
4.8694424551
 31
0.0
  0
ARC
  5
319
330
1F
100
AcDbEntity
  8
0
  6
CONTINUOUS
 62
     7
100
AcDbCircle
 10
4.5502651455
 20
5.1691080347
 30
0.0
 40
0.0567808569931219
100
AcDbArc
 50
266.383697466
 51
309.5013293715
  0
LWPOLYLINE
  5
31A
330
1F
100
AcDbEntity
  8
0
  6
CONTINUOUS
 62
     7
100
AcDbPolyline
 90
        3
 70
   128
 43
0.0
 10
4.6040926313
 20
5.1169674429
 10
4.6084260655
 20
5.1137336117
 10
4.6086806358
 20
5.1121761289
  0
LWPOLYLINE
  5
31B
330
1F
100
AcDbEntity
  8
0
  6
CONTINUOUS
 62
     7
100
AcDbPolyline
 90
        4
 70
   128
 43
0.0
 10
4.136631208
 20
5.1121760724
 10
4.1367109549
 20
5.113459344
 10
4.1385090583
 20
5.1155850424
 10
4.1407914828
 20
5.1169770868
  0
ARC
  5
31C
330
1F
100
AcDbEntity
  8
0
  6
CONTINUOUS
 62
     7
100
AcDbCircle
 10
4.195378875
 20
5.1702434194
 30
0.0
 40
0.0578924525860824
100
AcDbArc
 50
230.9326866123
 51
273.1822865502
  0
LWPOLYLINE
  5
31D
330
1F
100
AcDbEntity
  8
0
  6
CONTINUOUS
 62
     7
100
AcDbPolyline
 90
        3
 70
   128
 43
0.0
 10
4.6858400569
 20
5.0140150416
 10
4.6913036325
 20
5.0228919184
 10
4.6966648395
 20
5.033700081
  0
LINE
  5
31E
330
1F
100
AcDbEntity
  8
0
  6
CONTINUOUS
 62
     7
100
AcDbLine
 10
4.7029502592
 20
5.033700081
 30
0.0
 11
4.7029502592
 21
5.0927551991
 31
0.0
  0
LINE
  5
31F
330
1F
100
AcDbEntity
  8
0
  6
CONTINUOUS
 62
     7
100
AcDbLine
 10
4.7029502592
 20
5.033700081
 30
0.0
 11
4.6966648395
 21
5.033700081
 31
0.0
  0
LINE
  5
320
330
1F
100
AcDbEntity
  8
0
  6
CONTINUOUS
 62
     7
100
AcDbLine
 10
4.6378434185
 20
5.0927551991
 30
0.0
 11
4.6354131068
 21
5.0927551991
 31
0.0
  0
LINE
  5
321
330
1F
100
AcDbEntity
  8
0
  6
CONTINUOUS
 62
     7
100
AcDbLine
 10
4.6416985265
 20
5.033700081
 30
0.0
 11
4.6354131068
 21
5.033700081
 31
0.0
  0
LINE
  5
322
330
1F
100
AcDbEntity
  8
0
  6
CONTINUOUS
 62
     7
100
AcDbLine
 10
4.6858400569
 20
5.0140150416
 30
0.0
 11
4.6525233091
 21
5.0140150416
 31
0.0
  0
LINE
  5
323
330
1F
100
AcDbEntity
  8
0
  6
CONTINUOUS
 62
     7
100
AcDbLine
 10
4.1702853704
 20
4.8525977188
 30
0.0
 11
4.3505624434
 21
4.8525977188
 31
0.0
  0
LWPOLYLINE
  5
324
330
1F
100
AcDbEntity
  8
0
  6
CONTINUOUS
 62
     7
100
AcDbPolyline
 90
        8
 70
   128
 43
0.0
 10
4.1702853704
 20
4.8525977188
 10
4.1565941766
 20
4.8555583591
 10
4.1461843395
 20
4.8587147361
 10
4.1381667274
 20
4.8629725531
 10
4.1365731553
 20
4.865178908
 10
4.1367109549
 20
4.8673963519
 10
4.1385090583
 20
4.8695220503
 10
4.1407914828
 20
4.8709140946
  0
LWPOLYLINE
  5
325
330
1F
100
AcDbEntity
  8
0
  6
CONTINUOUS
 62
     7
100
AcDbPolyline
 90
       18
 70
   128
 43
0.0
 10
4.3505624434
 20
4.857205516
 10
4.3316783794
 20
4.8574974986
 10
4.3131211461
 20
4.8579629104
 10
4.2950388176
 20
4.8585980379
 10
4.2775756782
 20
4.859397813
 10
4.2608710717
 20
4.8603558542
 10
4.2450582892
 20
4.8614645169
 10
4.2302635058
 20
4.8627149548
 10
4.2166047736
 20
4.8640971903
 10
4.2041910799
 20
4.865600194
 10
4.1931214772
 20
4.8672119732
 10
4.1834842933
 20
4.8689196667
 10
4.1753564263
 20
4.8707096486
 10
4.168802731
 20
4.8725676359
 10
4.1638755012
 20
4.8744788032
 10
4.1606140528
 20
4.8764279007
 10
4.15904441
 20
4.878399376
 10
4.1588931421
 20
4.8792323754
  0
LINE
  5
326
330
1F
100
AcDbEntity
  8
0
  6
CONTINUOUS
 62
     7
100
AcDbLine
 10
4.3505624434
 20
4.857205516
 30
0.0
 11
4.3505624434
 21
4.8525977188
 31
0.0
  0
ARC
  5
327
330
1F
100
AcDbEntity
  8
0
  6
CONTINUOUS
 62
     7
100
AcDbCircle
 10
4.4409191234
 20
5.3050273053
 30
0.0
 40
0.4499568070389664
100
AcDbArc
 50
264.3842262282
 51
288.8616801787
  0
LWPOLYLINE
  5
328
330
1F
100
AcDbEntity
  8
0
  6
CONTINUOUS
 62
     7
100
AcDbPolyline
 90
        9
 70
   128
 43
0.0
 10
4.6040926313
 20
4.8709044508
 10
4.6084260655
 20
4.8676706196
 10
4.6087853742
 20
4.8654723378
 10
4.6074057155
 20
4.8632508981
 10
4.6044147045
 20
4.8611091047
 10
4.5997778096
 20
4.8589762589
 10
4.593388253
 20
4.8568376343
 10
4.5853091308
 20
4.8547413071
 10
4.5749910002
 20
4.8525977188
  0
LINE
  5
329
330
1F
100
AcDbEntity
  8
0
  6
CONTINUOUS
 62
     7
100
AcDbLine
 10
4.3968877512
 20
4.8525977188
 30
0.0
 11
4.5749910002
 21
4.8525977188
 31
0.0
  0
LINE
  5
32A
330
1F
100
AcDbEntity
  8
0
  6
CONTINUOUS
 62
     7
100
AcDbLine
 10
4.3968877512
 20
4.8525977188
 30
0.0
 11
4.3968877512
 21
4.8572300672
 31
0.0
  0
LINE
  5
32B
330
1F
100
AcDbEntity
  8
0
  6
CONTINUOUS
 62
     7
100
AcDbLine
 10
4.3968877512
 20
4.9064426656
 30
0.0
 11
4.3968877512
 21
4.9186796047
 31
0.0
  0
LINE
  5
32C
330
1F
100
AcDbEntity
  8
0
  6
CONTINUOUS
 62
     7
100
AcDbLine
 10
4.3505624434
 20
4.9186550535
 30
0.0
 11
4.3505624434
 21
4.9064181144
 31
0.0
  0
LINE
  5
32D
330
1F
100
AcDbEntity
  8
0
  6
CONTINUOUS
 62
     7
100
AcDbLine
 10
4.3505624434
 20
5.1647180456
 30
0.0
 11
4.3505624434
 21
5.1524811065
 31
0.0
  0
LINE
  5
32E
330
1F
100
AcDbEntity
  8
0
  6
CONTINUOUS
 62
     7
100
AcDbLine
 10
4.3968877512
 20
5.1124402385
 30
0.0
 11
4.3968877512
 21
5.1155299984
 31
0.0
  0
LINE
  5
32F
330
1F
100
AcDbEntity
  8
0
  6
CONTINUOUS
 62
     7
100
AcDbLine
 10
4.3505624434
 20
5.1155054472
 30
0.0
 11
4.3505624434
 21
5.1124402385
 31
0.0
  0
LINE
  5
330
330
1F
100
AcDbEntity
  8
0
  6
CONTINUOUS
 62
     7
100
AcDbLine
 10
4.3968877512
 20
5.0048678625
 30
0.0
 11
4.3968877512
 21
5.0140150416
 31
0.0
  0
LINE
  5
331
330
1F
100
AcDbEntity
  8
0
  6
CONTINUOUS
 62
     7
100
AcDbLine
 10
4.3505624434
 20
5.0140150416
 30
0.0
 11
4.3505624434
 21
5.0048433113
 31
0.0
  0
LINE
  5
332
330
1F
100
AcDbEntity
  8
0
  6
CONTINUOUS
 62
     7
100
AcDbLine
 10
4.3968877512
 20
4.955655264
 30
0.0
 11
4.3968877512
 21
4.9678922031
 31
0.0
  0
LINE
  5
333
330
1F
100
AcDbEntity
  8
0
  6
CONTINUOUS
 62
     7
100
AcDbLine
 10
4.3505624434
 20
4.9678676519
 30
0.0
 11
4.3505624434
 21
4.9556307128
 31
0.0
  0
LINE
  5
334
330
1F
100
AcDbEntity
  8
0
  6
CONTINUOUS
 62
     7
100
AcDbLine
 10
4.3968877512
 20
4.8572300672
 30
0.0
 11
4.3968877512
 21
4.8694670063
 31
0.0
  0
LINE
  5
335
330
1F
100
AcDbEntity
  8
0
  6
CONTINUOUS
 62
     7
100
AcDbLine
 10
4.3505624434
 20
4.8694424551
 30
0.0
 11
4.3505624434
 21
4.857205516
 31
0.0
  0
LINE
  5
336
330
1F
100
AcDbEntity
  8
0
  6
CONTINUOUS
 62
     7
100
AcDbLine
 10
4.3968877512
 20
5.1525056577
 30
0.0
 11
4.3968877512
 21
5.1647425968
 31
0.0
  0
LINE
  5
337
330
1F
100
AcDbEntity
  8
0
  6
CONTINUOUS
 62
     7
100
AcDbLine
 10
4.3505624434
 20
4.8525977188
 30
0.0
 11
4.3968877512
 21
4.8525977188
 31
0.0
  0
ARC
  5
338
330
1F
100
AcDbEntity
  8
0
  6
CONTINUOUS
 62
     7
100
AcDbCircle
 10
4.1973899096
 20
5.3562305996
 30
0.0
 40
0.0828108487596816
100
AcDbArc
 50
245.006347382
 51
264.1057491372
  0
ARC
  5
339
330
1F
100
AcDbEntity
  8
0
  6
CONTINUOUS
 62
     7
100
AcDbCircle
 10
4.5460640983
 20
5.3628268778
 30
0.0
 40
0.0895665926908092
100
AcDbArc
 50
276.6205466773
 51
294.2673568035
  0
LWPOLYLINE
  5
33A
330
1F
100
AcDbEntity
  8
0
  6
CONTINUOUS
 62
     7
100
AcDbPolyline
 90
        3
 70
   128
 43
0.0
 10
4.0594363138
 20
5.0140150416
 10
4.0539727381
 20
5.0228919184
 10
4.0486115311
 20
5.033700081
  0
LINE
  5
33B
330
1F
100
AcDbEntity
  8
0
  6
CONTINUOUS
 62
     7
100
AcDbLine
 10
4.1088988335
 20
5.0140150416
 30
0.0
 11
4.0594363138
 21
5.0140150416
 31
0.0
  0
LWPOLYLINE
  5
33C
330
1F
100
AcDbEntity
  8
0
  6
CONTINUOUS
 62
     7
100
AcDbPolyline
 90
        3
 70
   128
 43
0.0
 10
4.6086451627
 20
4.8553760112
 10
4.6085654158
 20
4.8540927396
 10
4.6074740638
 20
4.8525977188
  0
LINE
  5
33D
330
1F
100
AcDbEntity
  8
0
  6
CONTINUOUS
 62
     7
100
AcDbLine
 10
4.1378023069
 20
4.8525977188
 30
0.0
 11
4.1364263069
 21
4.8553745004
 31
0.0
  0
LINE
  5
33E
330
1F
100
AcDbEntity
  8
0
  6
CONTINUOUS
 62
     7
100
AcDbLine
 10
4.5749910002
 20
4.8525977188
 30
0.0
 11
4.6074740638
 21
4.8525977188
 31
0.0
  0
LINE
  5
33F
330
1F
100
AcDbEntity
  8
0
  6
CONTINUOUS
 62
     7
100
AcDbLine
 10
4.1378023069
 20
4.8525977188
 30
0.0
 11
4.1702853704
 21
4.8525977188
 31
0.0
  0
LINE
  5
340
330
1F
100
AcDbEntity
  8
0
  6
CONTINUOUS
 62
     7
100
AcDbLine
 10
4.0314045651
 20
5.2541725219
 30
0.0
 11
4.0424418385
 21
5.2654267137
 31
0.0
  0
LINE
  5
341
330
1F
100
AcDbEntity
  8
0
  6
CONTINUOUS
 62
     7
100
AcDbLine
 10
4.0501516351
 20
5.2738575613
 30
0.0
 11
4.0630650026
 21
5.2738575613
 31
0.0
  0
LINE
  5
342
330
1F
100
AcDbEntity
  8
0
  6
CONTINUOUS
 62
     7
100
AcDbLine
 10
4.2993182097
 20
6.170027869
 30
0.0
 11
4.3193969499
 21
6.170027869
 31
0.0
  0
LINE
  5
343
330
1F
100
AcDbEntity
  8
0
  6
CONTINUOUS
 62
     7
100
AcDbLine
 10
4.3193969499
 20
6.15850085
 30
0.0
 11
4.3193969499
 21
6.170027869
 31
0.0
  0
LINE
  5
344
330
1F
100
AcDbEntity
  8
0
  6
CONTINUOUS
 62
     7
100
AcDbLine
 10
4.2993182097
 20
6.1503428296
 30
0.0
 11
4.2993182097
 21
6.170027869
 31
0.0
  0
LINE
  5
345
330
1F
100
AcDbEntity
  8
0
  6
CONTINUOUS
 62
     7
100
AcDbLine
 10
4.2993182097
 20
6.0155511271
 30
0.0
 11
4.3135830672
 21
6.0155511271
 31
0.0
  0
LINE
  5
346
330
1F
100
AcDbEntity
  8
0
  6
CONTINUOUS
 62
     7
100
AcDbLine
 10
4.2993182097
 20
6.0155511271
 30
0.0
 11
4.2993182097
 21
6.1503428296
 31
0.0
  0
LINE
  5
347
330
1F
100
AcDbEntity
  8
0
  6
CONTINUOUS
 62
     7
100
AcDbLine
 10
4.2993182097
 20
5.9958660877
 30
0.0
 11
4.2993182097
 21
6.0155511271
 31
0.0
  0
ELLIPSE
  5
348
330
1F
100
AcDbEntity
  8
0
  6
CONTINUOUS
 62
     7
100
AcDbEllipse
 10
4.3332681066
 20
4.8049741521
 30
0.0
 11
0.0
 21
1.277962425628981
 31
0.0
210
0.0
220
0.0
230
1.0
 40
0.0616138283
 41
1.533522464100978
 42
1.570796326794897
  0
LINE
  5
349
330
1F
100
AcDbEntity
  8
0
  6
CONTINUOUS
 62
     7
100
AcDbLine
 10
4.2545279491
 20
4.2223908538
 30
0.0
 11
4.2545279491
 21
4.8049741521
 31
0.0
  0
ELLIPSE
  5
34A
330
1F
100
AcDbEntity
  8
0
  6
CONTINUOUS
 62
     7
100
AcDbEllipse
 10
4.4120082641
 20
4.8049741521
 30
0.0
 11
0.0
 21
1.277962425628981
 31
0.0
210
0.0
220
0.0
230
1.0
 40
0.0616138283
 41
4.71238898038469
 42
4.749662843078609
  0
LINE
  5
34B
330
1F
100
AcDbEntity
  8
0
  6
CONTINUOUS
 62
     7
100
AcDbLine
 10
4.4907484216
 20
4.8049741521
 30
0.0
 11
4.4907484216
 21
4.2223908538
 31
0.0
  0
LINE
  5
34C
330
1F
100
AcDbEntity
  8
0
  6
CONTINUOUS
 62
     7
100
AcDbLine
 10
4.2993182097
 20
5.970707955
 30
0.0
 11
4.2993182097
 21
5.9958660877
 31
0.0
  0
LINE
  5
34D
330
1F
100
AcDbEntity
  8
0
  6
CONTINUOUS
 62
     7
100
AcDbLine
 10
4.28947569
 20
6.0609013924
 30
0.0
 11
4.28947569
 21
6.1238935146
 31
0.0
  0
LINE
  5
34E
330
1F
100
AcDbEntity
  8
0
  6
CONTINUOUS
 62
     7
100
AcDbLine
 10
4.6945661845
 20
5.2738575613
 30
0.0
 11
4.6951247355
 21
5.2738575613
 31
0.0
  0
ARC
  5
34F
330
1F
100
AcDbEntity
  8
0
  6
CONTINUOUS
 62
     7
100
AcDbCircle
 10
4.3747404987
 20
6.1170555712
 30
0.0
 40
0.0352346719571966
100
AcDbArc
 50
266.6765685106
 51
315.8479922137
  0
ARC
  5
350
330
1F
100
AcDbEntity
  8
0
  6
CONTINUOUS
 62
     7
100
AcDbCircle
 10
4.370946164
 20
6.1177791543
 30
0.0
 40
0.035941708979018
100
AcDbArc
 50
224.502789155
 51
272.7935448029
  0
LINE
  5
351
330
1F
100
AcDbEntity
  8
0
  6
PHANTOM
 62
     8
100
AcDbLine
 10
4.6482287365
 20
5.9313378763
 30
0.0
 11
4.6482287365
 21
5.970707955
 31
0.0
  0
LINE
  5
352
330
1F
100
AcDbEntity
  8
0
  6
PHANTOM
 62
     8
100
AcDbLine
 10
4.6875988153
 20
5.9313378763
 30
0.0
 11
4.6482287365
 21
5.9313378763
 31
0.0
  0
LINE
  5
353
330
1F
100
AcDbEntity
  8
0
  6
PHANTOM
 62
     8
100
AcDbLine
 10
4.0970476341
 20
5.9313378763
 30
0.0
 11
4.0970476341
 21
5.970707955
 31
0.0
  0
LINE
  5
354
330
1F
100
AcDbEntity
  8
0
  6
PHANTOM
 62
     8
100
AcDbLine
 10
4.0970476341
 20
5.9313378763
 30
0.0
 11
4.0576775554
 21
5.9313378763
 31
0.0
  0
LINE
  5
355
330
1F
100
AcDbEntity
  8
0
  6
PHANTOM
 62
     8
100
AcDbLine
 10
4.6482287365
 20
5.9313378763
 30
0.0
 11
4.0970476341
 21
5.9313378763
 31
0.0
  0
LINE
  5
356
330
1F
100
AcDbEntity
  8
0
  6
PHANTOM
 62
     8
100
AcDbLine
 10
4.0970476341
 20
5.9313378763
 30
0.0
 11
4.0970476341
 21
5.3250386637
 31
0.0
  0
LINE
  5
357
330
1F
100
AcDbEntity
  8
0
  6
PHANTOM
 62
     8
100
AcDbLine
 10
4.6482287365
 20
5.3250386637
 30
0.0
 11
4.6482287365
 21
5.9313378763
 31
0.0
  0
ARC
  5
358
330
1F
100
AcDbEntity
  8
0
  6
PHANTOM
 62
     8
100
AcDbCircle
 10
4.3774062027
 20
6.0807530695
 30
0.0
 40
0.0350125243233258
100
AcDbArc
 50
8.788981672
 51
97.8268785341
  0
ARC
  5
359
330
1F
100
AcDbEntity
  8
0
  6
PHANTOM
 62
     8
100
AcDbCircle
 10
4.3679433074
 20
6.0805233418
 30
0.0
 40
0.0352303045052821
100
AcDbArc
 50
82.3418402425
 51
169.7592819535
  0
LINE
  5
35A
330
1F
100
AcDbEntity
  8
0
  6
PHANTOM
 62
     8
100
AcDbLine
 10
4.2993182097
 20
6.1503428296
 30
0.0
 11
4.3066956662
 21
6.1503428296
 31
0.0
  0
LINE
  5
35B
330
1F
100
AcDbEntity
  8
0
  6
PHANTOM
 62
     8
100
AcDbLine
 10
4.2993182097
 20
5.9958660877
 30
0.0
 11
4.3135830672
 21
5.9958660877
 31
0.0
  0
LINE
  5
35C
330
1F
100
AcDbEntity
  8
0
  6
PHANTOM
 62
     8
100
AcDbLine
 10
4.3332681066
 20
4.8525977188
 30
0.0
 11
4.3332681066
 21
4.18371275
 31
0.0
  0
LWPOLYLINE
  5
35D
330
1F
100
AcDbEntity
  8
0
  6
PHANTOM
 62
     8
100
AcDbPolyline
 90
       11
 70
   128
 43
0.0
 10
4.2545279491
 20
4.2223908538
 10
4.2554973711
 20
4.2163402653
 10
4.2583817667
 20
4.2104386624
 10
4.2631101126
 20
4.2048313621
 10
4.269565981
 20
4.1996564348
 10
4.2775904073
 20
4.1950413043
 10
4.2869858033
 20
4.1910996105
 10
4.2975208231
 20
4.1879284109
 10
4.3089360598
 20
4.1856057911
 10
4.3209504322
 20
4.1841889416
 10
4.3332681066
 20
4.18371275
  0
LWPOLYLINE
  5
35E
330
1F
100
AcDbEntity
  8
0
  6
PHANTOM
 62
     8
100
AcDbPolyline
 90
       11
 70
   128
 43
0.0
 10
4.4120082641
 20
4.18371275
 10
4.4243259385
 20
4.1841889416
 10
4.4363403109
 20
4.1856057911
 10
4.4477555475
 20
4.1879284109
 10
4.4582905674
 20
4.1910996105
 10
4.4676859634
 20
4.1950413043
 10
4.4757103896
 20
4.1996564348
 10
4.4821662581
 20
4.2048313621
 10
4.4868946039
 20
4.2104386624
 10
4.4897789996
 20
4.2163402653
 10
4.4907484216
 20
4.2223908538
  0
LINE
  5
35F
330
1F
100
AcDbEntity
  8
0
  6
PHANTOM
 62
     8
100
AcDbLine
 10
4.4120082641
 20
4.18371275
 30
0.0
 11
4.4120082641
 21
4.8525977188
 31
0.0
  0
LINE
  5
360
330
1F
100
AcDbEntity
  8
0
  6
PHANTOM
 62
     8
100
AcDbLine
 10
4.3332681066
 20
4.18371275
 30
0.0
 11
4.4120082641
 21
4.18371275
 31
0.0
  0
LINE
  5
361
330
1F
100
AcDbEntity
  8
0
  6
PHANTOM
 62
     8
100
AcDbLine
 10
4.2973497058
 20
6.1317675341
 30
0.0
 11
4.2973497058
 21
6.0530273766
 31
0.0
  0
LINE
  5
362
330
1F
100
AcDbEntity
  8
0
  6
PHANTOM
 62
     8
100
AcDbLine
 10
4.3332681066
 20
4.18371275
 30
0.0
 11
4.3332681066
 21
4.1436506963
 31
0.0
  0
LINE
  5
363
330
1F
100
AcDbEntity
  8
0
  6
PHANTOM
 62
     8
100
AcDbLine
 10
4.4120082641
 20
4.18371275
 30
0.0
 11
4.4120082641
 21
4.1436506963
 31
0.0
  0
LINE
  5
364
330
1F
100
AcDbEntity
  8
0
  6
CONTINUOUS
 62
     7
100
AcDbLine
 10
6.0605433955
 20
4.3350938323
 30
0.0
 11
6.5155372548
 21
4.9709267315
 31
0.0
  0
LINE
  5
365
330
1F
100
AcDbEntity
  8
0
  6
CONTINUOUS
 62
     7
100
AcDbLine
 10
6.4102746264
 20
5.1796700974
 30
0.0
 11
5.8535611777
 21
4.4957467445
 31
0.0
  0
LINE
  5
366
330
1F
100
AcDbEntity
  8
0
  6
CONTINUOUS
 62
     7
100
AcDbLine
 10
6.3011676217
 20
5.2697146672
 30
0.0
 11
6.294179798
 21
5.2656806825
 31
0.0
  0
LINE
  5
367
330
1F
100
AcDbEntity
  8
0
  6
CONTINUOUS
 62
     7
100
AcDbLine
 10
6.5561309873
 20
4.8713888485
 30
0.0
 11
6.5631188109
 21
4.8754228332
 31
0.0
  0
LINE
  5
368
330
1F
100
AcDbEntity
  8
0
  6
CONTINUOUS
 62
     7
100
AcDbLine
 10
6.7293474446
 20
4.8481950111
 30
0.0
 11
6.7432668695
 21
4.856230524
 31
0.0
  0
LINE
  5
369
330
1F
100
AcDbEntity
  8
0
  6
CONTINUOUS
 62
     7
100
AcDbLine
 10
6.4003860776
 20
5.4501818324
 30
0.0
 11
6.3864666528
 21
5.4421463194
 31
0.0
  0
LINE
  5
36A
330
1F
100
AcDbEntity
  8
0
  6
CONTINUOUS
 62
     7
100
AcDbLine
 10
6.3359661837
 20
5.2898034495
 30
0.0
 11
6.3289783601
 21
5.2857694648
 31
0.0
  0
LINE
  5
36B
330
1F
100
AcDbEntity
  8
0
  6
CONTINUOUS
 62
     7
100
AcDbLine
 10
6.5909295494
 20
4.8914776308
 30
0.0
 11
6.597917373
 21
4.8955116155
 31
0.0
  0
LINE
  5
36C
330
1F
100
AcDbEntity
  8
0
  6
CONTINUOUS
 62
     7
100
AcDbLine
 10
6.5213324252
 20
4.8513000662
 30
0.0
 11
6.5283202489
 21
4.8553340509
 31
0.0
  0
ARC
  5
36D
330
1F
100
AcDbEntity
  8
0
  6
CONTINUOUS
 62
     7
100
AcDbCircle
 10
5.9146276684
 20
4.4460386354
 30
0.0
 40
0.0787401574803158
100
AcDbArc
 50
140.8544187682
 51
218.4679097075
  0
ARC
  5
36E
330
1F
100
AcDbEntity
  8
0
  6
CONTINUOUS
 62
     7
100
AcDbCircle
 10
5.9965093337
 20
4.3809157848
 30
0.0
 40
0.0787401574803152
100
AcDbArc
 50
240.0026882663
 51
324.4129768754
  0
LINE
  5
36F
330
1F
100
AcDbEntity
  8
0
  6
CONTINUOUS
 62
     7
100
AcDbLine
 10
5.8529775351
 20
4.3970562563
 30
0.0
 11
5.8791815011
 21
4.3640754573
 31
0.0
  0
LINE
  5
370
330
1F
100
AcDbEntity
  8
0
  6
CONTINUOUS
 62
     7
100
AcDbLine
 10
5.9014647552
 20
4.3448650126
 30
0.0
 11
5.9571424545
 21
4.312722961
 31
0.0
  0
ARC
  5
371
330
1F
100
AcDbEntity
  8
0
  6
CONTINUOUS
 62
     7
100
AcDbCircle
 10
5.9408316344
 20
4.4130578364
 30
0.0
 40
0.0787401574803149
100
AcDbArc
 50
218.4679097075
 51
240.0026882664
  0
LINE
  5
372
330
1F
100
AcDbEntity
  8
0
  6
CONTINUOUS
 62
     7
100
AcDbLine
 10
6.3707811818
 20
5.3099017201
 30
0.0
 11
6.3637769222
 21
5.3058582471
 31
0.0
  0
LINE
  5
373
330
1F
100
AcDbEntity
  8
0
  6
CONTINUOUS
 62
     7
100
AcDbLine
 10
6.499835785
 20
4.8658762266
 30
0.0
 11
6.5030671926
 21
4.8681303775
 31
0.0
  0
LINE
  5
374
330
1F
100
AcDbEntity
  8
0
  6
CONTINUOUS
 62
     7
100
AcDbLine
 10
6.9139981836
 20
5.0808683899
 30
0.0
 11
6.9139981836
 21
5.0874570663
 31
0.0
  0
LINE
  5
375
330
1F
100
AcDbEntity
  8
0
  6
CONTINUOUS
 62
     7
100
AcDbLine
 10
6.9363191591
 20
6.0600285158
 30
0.0
 11
6.5076008745
 21
5.8125347181
 31
0.0
  0
ARC
  5
376
330
1F
100
AcDbEntity
  8
0
  6
CONTINUOUS
 62
     7
100
AcDbCircle
 10
7.3457464939
 20
5.8009377423
 30
0.0
 40
0.0393700787401574
100
AcDbArc
 50
0.0
 51
60.0026882663
  0
LINE
  5
377
330
1F
100
AcDbEntity
  8
0
  6
CONTINUOUS
 62
     7
100
AcDbLine
 10
7.3851165726
 20
5.624127724
 30
0.0
 11
7.3851165726
 21
5.8009377423
 31
0.0
  0
LINE
  5
378
330
1F
100
AcDbEntity
  8
0
  6
CONTINUOUS
 62
     7
100
AcDbLine
 10
7.1287997115
 20
5.9716378737
 30
0.0
 11
6.9756860384
 21
6.0600285158
 31
0.0
  0
LINE
  5
379
330
1F
100
AcDbEntity
  8
0
  6
CONTINUOUS
 62
     7
100
AcDbLine
 10
7.3654299335
 20
5.8350341542
 30
0.0
 11
7.2123162604
 21
5.9234247963
 31
0.0
  0
LINE
  5
37A
330
1F
100
AcDbEntity
  8
0
  6
CONTINUOUS
 62
     7
100
AcDbLine
 10
6.4936798499
 20
5.6739583529
 30
0.0
 11
6.4936798499
 21
5.468254664
 31
0.0
  0
LINE
  5
37B
330
1F
100
AcDbEntity
  8
0
  6
CONTINUOUS
 62
     7
100
AcDbLine
 10
7.3431650888
 20
5.5330569529
 30
0.0
 11
7.3431650888
 21
5.5904954589
 31
0.0
  0
LINE
  5
37C
330
1F
100
AcDbEntity
  8
0
  6
CONTINUOUS
 62
     7
100
AcDbLine
 10
7.3851165726
 20
5.1901394972
 30
0.0
 11
7.3851165726
 21
5.5598331719
 31
0.0
  0
LINE
  5
37D
330
1F
100
AcDbEntity
  8
0
  6
CONTINUOUS
 62
     7
100
AcDbLine
 10
6.9367116488
 20
4.6674447172
 30
0.0
 11
7.3654299335
 21
4.9149385149
 31
0.0
  0
ARC
  5
37E
330
1F
100
AcDbEntity
  8
0
  6
CONTINUOUS
 62
     7
100
AcDbCircle
 10
6.9560025987
 20
6.0259321039
 30
0.0
 40
0.039370078740157
100
AcDbArc
 50
60.0026882663
 51
119.9973117336
  0
LINE
  5
37F
330
1F
100
AcDbEntity
  8
0
  6
CONTINUOUS
 62
     7
100
AcDbLine
 10
7.3431604535
 20
5.0989235299
 30
0.0
 11
7.3431604535
 21
5.1565045563
 31
0.0
  0
LINE
  5
380
330
1F
100
AcDbEntity
  8
0
  6
CONTINUOUS
 62
     7
100
AcDbLine
 10
7.3851165726
 20
4.9490349268
 30
0.0
 11
7.3851165726
 21
5.1258449451
 31
0.0
  0
ARC
  5
381
330
1F
100
AcDbEntity
  8
0
  6
CONTINUOUS
 62
     7
100
AcDbCircle
 10
7.3457464939
 20
4.9490349268
 30
0.0
 40
0.0393700787401581
100
AcDbArc
 50
299.9973117337
 51
0.0
  0
ELLIPSE
  5
382
330
1F
100
AcDbEntity
  8
0
  6
CONTINUOUS
 62
     7
100
AcDbEllipse
 10
6.3822539686
 20
4.9199760919
 30
0.0
 11
0.9039502873334716
 21
1.183760153405956
 31
0.0
210
0.0
220
0.0
230
1.0
 40
0.0428077466
 41
4.717925121880341
 42
4.803731524182403
  0
ARC
  5
383
330
1F
100
AcDbEntity
  8
0
  6
CONTINUOUS
 62
     7
100
AcDbCircle
 10
6.195539
 20
4.9361110446
 30
0.0
 40
0.5355381204864116
100
AcDbArc
 50
19.5708473961
 51
35.9876074105
  0
LINE
  5
384
330
1F
100
AcDbEntity
  8
0
  6
CONTINUOUS
 62
     7
100
AcDbLine
 10
6.7236965167
 20
4.9639724147
 30
0.0
 11
6.7001380184
 21
5.1155014266
 31
0.0
  0
ARC
  5
385
330
1F
100
AcDbEntity
  8
0
  6
CONTINUOUS
 62
     7
100
AcDbCircle
 10
6.5513427785
 20
4.9700713785
 30
0.0
 40
0.1724616143108653
100
AcDbArc
 50
322.8041870949
 51
357.9733590764
  0
LINE
  5
386
330
1F
100
AcDbEntity
  8
0
  6
CONTINUOUS
 62
     7
100
AcDbLine
 10
6.597059351
 20
4.8262022921
 30
0.0
 11
6.6887212336
 21
4.8658112783
 31
0.0
  0
ARC
  5
387
330
1F
100
AcDbEntity
  8
0
  6
CONTINUOUS
 62
     7
100
AcDbCircle
 10
6.6081377188
 20
5.0213972334
 30
0.0
 40
0.1955090671134883
100
AcDbArc
 50
241.9780347158
 51
266.7516397401
  0
LINE
  5
388
330
1F
100
AcDbEntity
  8
0
  6
CONTINUOUS
 62
     7
100
AcDbLine
 10
6.2807621821
 20
5.2620848126
 30
0.0
 11
6.2816871257
 21
5.2561355461
 31
0.0
  0
ARC
  5
389
330
1F
100
AcDbEntity
  8
0
  6
CONTINUOUS
 62
     7
100
AcDbCircle
 10
6.4531159203
 20
5.2559858488
 30
0.0
 40
0.1724616143108738
100
AcDbArc
 50
142.8041870949
 51
177.9733590764
  0
LINE
  5
38A
330
1F
100
AcDbEntity
  8
0
  6
CONTINUOUS
 62
     7
100
AcDbLine
 10
6.4073993477
 20
5.3998549352
 30
0.0
 11
6.3157374652
 21
5.360245949
 31
0.0
  0
ARC
  5
38B
330
1F
100
AcDbEntity
  8
0
  6
CONTINUOUS
 62
     7
100
AcDbCircle
 10
6.3918080171
 20
5.184693663
 30
0.0
 40
0.2157254333825302
100
AcDbArc
 50
55.6127569885
 51
85.8553937053
  0
LINE
  5
38C
330
1F
100
AcDbEntity
  8
0
  6
CONTINUOUS
 62
     7
100
AcDbLine
 10
6.628866515
 20
5.2507987362
 30
0.0
 11
6.5136461342
 21
5.3627187619
 31
0.0
  0
LWPOLYLINE
  5
38D
330
1F
100
AcDbEntity
  8
0
  6
CONTINUOUS
 62
     7
100
AcDbPolyline
 90
       25
 70
   128
 43
0.0
 10
6.6612000227
 20
5.0597121914
 10
6.6604380962
 20
5.0641357276
 10
6.6566657256
 20
5.0819587856
 10
6.6517354464
 20
5.100014794
 10
6.645684224
 20
5.1181683754
 10
6.6385574284
 20
5.1362834208
 10
6.6304084937
 20
5.1542241099
 10
6.6212985176
 20
5.1718559299
 10
6.6112958036
 20
5.1890466838
 10
6.6004753483
 20
5.2056674814
 10
6.5889182797
 20
5.2215937059
 10
6.5767112486
 20
5.2367059483
 10
6.5639457789
 20
5.2508909023
 10
6.5507175815
 20
5.2640422143
 10
6.5371258367
 20
5.2760612804
 10
6.5232724506
 20
5.2868579859
 10
6.5092612908
 20
5.2963513811
 10
6.495197408
 20
5.3044702878
 10
6.4811862482
 20
5.3111538334
 10
6.4673328621
 20
5.3163519071
 10
6.4537411173
 20
5.3200255355
 10
6.4405129199
 20
5.3221471752
 10
6.4277474502
 20
5.3227009187
 10
6.415540419
 20
5.3216826145
 10
6.4047167139
 20
5.3193160453
  0
LWPOLYLINE
  5
38E
330
1F
100
AcDbEntity
  8
0
  6
CONTINUOUS
 62
     7
100
AcDbPolyline
 90
        3
 70
   128
 43
0.0
 10
6.6197292606
 20
4.9157070704
 10
6.6254382995
 20
4.9196917488
 10
6.6340838897
 20
4.9273903047
  0
ELLIPSE
  5
38F
330
1F
100
AcDbEntity
  8
0
  6
CONTINUOUS
 62
     7
100
AcDbEllipse
 10
6.5022293494
 20
5.154756538
 30
0.0
 11
-0.1271148519098828
 21
0.2301817549033149
 31
0.0
210
0.0
220
0.0
230
1.0
 40
0.5771016501
 41
3.177911835719693
 42
3.346533442590673
  0
ARC
  5
390
330
1F
100
AcDbEntity
  8
0
  6
CONTINUOUS
 62
     7
100
AcDbCircle
 10
6.5144519848
 20
5.0119652691
 30
0.0
 40
0.1548249236867366
100
AcDbArc
 50
334.0931661104
 51
0.9905208362
  0
ARC
  5
391
330
1F
100
AcDbEntity
  8
0
  6
CONTINUOUS
 62
     7
100
AcDbCircle
 10
6.3304067684
 20
5.1338601574
 30
0.0
 40
0.1157137034362117
100
AcDbArc
 50
62.1904319393
 51
94.3973503879
  0
ARC
  5
392
330
1F
100
AcDbEntity
  8
0
  6
CONTINUOUS
 62
     7
100
AcDbCircle
 10
6.2342041552
 20
4.9406931885
 30
0.0
 40
0.3314887524228637
100
AcDbArc
 50
359.3538718251
 51
56.4999112814
  0
LWPOLYLINE
  5
393
330
1F
100
AcDbEntity
  8
0
  6
CONTINUOUS
 62
     7
100
AcDbPolyline
 90
        3
 70
   128
 43
0.0
 10
6.4171654859
 20
5.217116676
 10
6.4176833051
 20
5.218765367
 10
6.4244104579
 20
5.2401718077
  0
LWPOLYLINE
  5
394
330
1F
100
AcDbEntity
  8
0
  6
CONTINUOUS
 62
     7
100
AcDbPolyline
 90
       10
 70
   128
 43
0.0
 10
6.3916379493
 20
5.2592478926
 10
6.3721330005
 20
5.2673273283
 10
6.3531133574
 20
5.2725888439
 10
6.329064208
 20
5.2748682814
 10
6.3177150316
 20
5.2738507965
 10
6.3070638059
 20
5.2713375071
 10
6.2888966533
 20
5.262272973
 10
6.2810075039
 20
5.2555569882
 10
6.2741125578
 20
5.2474385356
 10
6.272308468
 20
5.2440018147
  0
LWPOLYLINE
  5
395
330
1F
100
AcDbEntity
  8
0
  6
CONTINUOUS
 62
     7
100
AcDbPolyline
 90
       26
 70
   128
 43
0.0
 10
6.5420333271
 20
4.8660944914
 10
6.5551072074
 20
4.8708108459
 10
6.5635995968
 20
4.8764654356
 10
6.571147907
 20
4.8835491749
 10
6.5827700561
 20
4.9011523683
 10
6.5870649276
 20
4.9119912231
 10
6.5902116467
 20
4.9240516316
 10
6.5928702233
 20
4.9505016574
 10
6.5924369204
 20
4.9653826853
 10
6.5907715118
 20
4.9811379429
 10
6.5879969649
 20
4.9970057898
 10
6.5840658918
 20
5.0134915965
 10
6.5788975962
 20
5.0307438029
 10
6.5725505924
 20
5.0484127343
 10
6.5653936408
 20
5.0655908483
 10
6.5572028113
 20
5.0829182779
 10
6.547869734
 20
5.1005295227
 10
6.5375499991
 20
5.1180424577
 10
6.5268409356
 20
5.1345238076
 10
6.5153412334
 20
5.1506668281
 10
6.5029286483
 20
5.1665753725
 10
6.4898389855
 20
5.1818808444
 10
6.4633429427
 20
5.2088876041
 10
6.4492880475
 20
5.2212786517
 10
6.4349430045
 20
5.2326381685
 10
6.4244104579
 20
5.2401718077
  0
LWPOLYLINE
  5
396
330
1F
100
AcDbEntity
  8
0
  6
CONTINUOUS
 62
     7
100
AcDbPolyline
 90
        3
 70
   128
 43
0.0
 10
6.3916379493
 20
5.2592478926
 10
6.3848515036
 20
5.2376733535
 10
6.3843911863
 20
5.2362092844
  0
LINE
  5
397
330
1F
100
AcDbEntity
  8
0
  6
CONTINUOUS
 62
     7
100
AcDbLine
 10
6.4244104579
 20
5.2401718077
 30
0.0
 11
6.4308722038
 21
5.2439020942
 31
0.0
  0
LWPOLYLINE
  5
398
330
1F
100
AcDbEntity
  8
0
  6
CONTINUOUS
 62
     7
100
AcDbPolyline
 90
       26
 70
   128
 43
0.0
 10
6.5627842429
 20
4.8760275746
 10
6.5684019557
 20
4.8788305427
 10
6.5762911051
 20
4.8855465276
 10
6.5831860512
 20
4.8936649801
 10
6.5934026201
 20
4.9131271473
 10
6.5969245459
 20
4.9248313587
 10
6.5992618755
 20
4.9376935902
 10
6.6002739872
 20
4.9654615559
 10
6.5989736369
 20
4.9808896222
 10
6.5964272758
 20
4.9971020862
 10
6.592797835
 20
5.0133262703
 10
6.5880109055
 20
5.0300770156
 10
6.5819805707
 20
5.0475009729
 10
6.5747854414
 20
5.0652417303
 10
6.5668317956
 20
5.0824056986
 10
6.5578707577
 20
5.0996255676
 10
6.5477911946
 20
5.1170321379
 10
6.5367683964
 20
5.1342448411
 10
6.5254376873
 20
5.1503514903
 10
6.5133709251
 20
5.166036222
 10
6.5004457004
 20
5.1813971895
 10
6.4869140932
 20
5.1960745245
 10
6.4598254386
 20
5.2216512323
 10
6.4455922922
 20
5.2332233609
 10
6.4311577506
 20
5.2437072962
 10
6.4308722038
 20
5.2439020942
  0
ARC
  5
399
330
1F
100
AcDbEntity
  8
0
  6
CONTINUOUS
 62
     7
100
AcDbCircle
 10
6.3438543742
 20
5.1819730106
 30
0.0
 40
0.0974883320959051
100
AcDbArc
 50
56.1922737633
 51
115.9386108431
  0
LINE
  5
39A
330
1F
100
AcDbEntity
  8
0
  6
CONTINUOUS
 62
     7
100
AcDbLine
 10
6.3980976296
 20
5.2629769866
 30
0.0
 11
6.3916379493
 21
5.2592478926
 31
0.0
  0
LWPOLYLINE
  5
39B
330
1F
100
AcDbEntity
  8
0
  6
CONTINUOUS
 62
     7
100
AcDbPolyline
 90
       52
 70
   128
 43
0.0
 10
6.2831467101
 20
5.0234932509
 10
6.2797112302
 20
5.0314927349
 10
6.2736733808
 20
5.0474386871
 10
6.2687065461
 20
5.0633818192
 10
6.2648572189
 20
5.0791728929
 10
6.2621614314
 20
5.0946640937
 10
6.260644418
 20
5.1097104137
 10
6.2603203788
 20
5.1241710096
 10
6.2611923472
 20
5.1379105208
 10
6.2632521608
 20
5.1508003366
 10
6.2664805386
 20
5.1627197998
 10
6.2708472608
 20
5.1735573365
 10
6.276311452
 20
5.1832115003
 10
6.2828219638
 20
5.191591922
 10
6.2903178536
 20
5.1986201554
 10
6.2987289551
 20
5.2042304115
 10
6.3079765347
 20
5.2083701748
 10
6.3179740292
 20
5.2110006944
 10
6.3286278555
 20
5.2120973469
 10
6.3398382867
 20
5.2116498669
 10
6.3515003861
 20
5.2096624431
 10
6.3635049887
 20
5.2061536791
 10
6.3757397236
 20
5.2011564192
 10
6.3880900658
 20
5.194717441
 10
6.400440408
 20
5.1868970176
 10
6.4126751429
 20
5.1777683532
 10
6.4246797455
 20
5.1674168981
 10
6.4363418449
 20
5.1559395486
 10
6.4475522762
 20
5.1434437401
 10
6.4582061024
 20
5.1300464417
 10
6.4682035969
 20
5.1158730607
 10
6.4774511766
 20
5.1010562692
 10
6.485862278
 20
5.085734762
 10
6.4933581678
 20
5.0700519585
 10
6.4998686797
 20
5.0541546598
 10
6.5053328709
 20
5.0381916751
 10
6.509699593
 20
5.0223124283
 10
6.5129279708
 20
5.0066655595
 10
6.5149877845
 20
4.9913975335
 10
6.5158597528
 20
4.976651269
 10
6.5155357137
 20
4.9625648008
 10
6.5140187002
 20
4.9492699872
 10
6.5113229127
 20
4.9368912764
 10
6.5074735855
 20
4.9255445413
 10
6.5025067508
 20
4.9153359945
 10
6.4964689014
 20
4.9063611949
 10
6.4894165555
 20
4.8987041523
 10
6.4814157276
 20
4.8924365417
 10
6.4725413108
 20
4.8876170319
 10
6.4628763752
 20
4.8842907368
 10
6.4525113912
 20
4.8824887926
 10
6.4522333511
 20
4.8824624505
  0
LINE
  5
39C
330
1F
100
AcDbEntity
  8
0
  6
CONTINUOUS
 62
     7
100
AcDbLine
 10
6.372480159
 20
5.2215676932
 30
0.0
 11
6.4052370983
 21
5.2026575147
 31
0.0
  0
LINE
  5
39D
330
1F
100
AcDbEntity
  8
0
  6
CONTINUOUS
 62
     7
100
AcDbLine
 10
6.4052370983
 20
5.2026575147
 30
0.0
 11
6.4052370983
 21
5.2144359603
 31
0.0
  0
ARC
  5
39E
330
1F
100
AcDbEntity
  8
0
  6
CONTINUOUS
 62
     7
100
AcDbCircle
 10
6.2274364998
 20
4.9393245628
 30
0.0
 40
0.3283504893541629
100
AcDbArc
 50
5.7339397941
 51
22.3250260165
  0
ELLIPSE
  5
39F
330
1F
100
AcDbEntity
  8
0
  6
CONTINUOUS
 62
     7
100
AcDbEllipse
 10
6.3880900658
 20
5.084019444
 30
0.0
 11
-0.1151881412039417
 21
0.2085846625149604
 31
0.0
210
0.0
220
0.0
230
1.0
 40
0.5771016501
 41
3.309148689479601
 42
3.867409866776554
  0
ELLIPSE
  5
3A0
330
1F
100
AcDbEntity
  8
0
  6
CONTINUOUS
 62
     7
100
AcDbEllipse
 10
6.3880900658
 20
5.0485373901
 30
0.0
 11
-0.1062855125401132
 21
0.1861153136480826
 31
0.0
210
0.0
220
0.0
230
1.0
 40
0.5773642259
 41
2.661122232415203
 42
3.44661662076645
  0
ELLIPSE
  5
3A1
330
1F
100
AcDbEntity
  8
0
  6
CONTINUOUS
 62
     7
100
AcDbEllipse
 10
6.3880900658
 20
5.0485373901
 30
0.0
 11
-0.1062855125401132
 21
0.1861153136480826
 31
0.0
210
0.0
220
0.0
230
1.0
 40
0.5773642259
 41
1.276727629425234
 42
1.464390944944573
  0
ELLIPSE
  5
3A2
330
1F
100
AcDbEntity
  8
0
  6
CONTINUOUS
 62
     7
100
AcDbEllipse
 10
6.3880900658
 20
5.084019444
 30
0.0
 11
-0.1151881412037552
 21
0.2085846625152623
 31
0.0
210
0.0
220
0.0
230
1.0
 40
0.5771016501
 41
0.8890062371829012
 42
1.447267414481395
  0
ARC
  5
3A3
330
1F
100
AcDbEntity
  8
0
  6
CONTINUOUS
 62
     7
100
AcDbCircle
 10
6.351976306
 20
5.154952094
 30
0.0
 40
0.1302446927970138
100
AcDbArc
 50
145.2161603785
 51
176.0819316502
  0
ELLIPSE
  5
3A4
330
1F
100
AcDbEntity
  8
0
  6
CONTINUOUS
 62
     7
100
AcDbEllipse
 10
6.3880900658
 20
5.0045253329
 30
0.0
 11
-0.1292909249197915
 21
0.2341222252469332
 31
0.0
210
0.0
220
0.0
230
1.0
 40
0.5771016501
 41
5.603370419254485
 42
6.391049379126756
  0
LINE
  5
3A5
330
1F
100
AcDbEntity
  8
0
  6
CONTINUOUS
 62
     7
100
AcDbLine
 10
6.372480159
 20
5.2335056621
 30
0.0
 11
6.372480159
 21
5.2215676932
 31
0.0
  0
ELLIPSE
  5
3A6
330
1F
100
AcDbEntity
  8
0
  6
CONTINUOUS
 62
     7
100
AcDbEllipse
 10
6.3880900658
 20
5.0045253329
 30
0.0
 11
-0.129290924919184
 21
0.2341222252448443
 31
0.0
210
0.0
220
0.0
230
1.0
 40
0.5771016501
 41
4.648552032001708
 42
5.427979628697388
  0
ARC
  5
3A7
330
1F
100
AcDbEntity
  8
0
  6
CONTINUOUS
 62
     7
100
AcDbCircle
 10
6.6635922711
 20
4.9607600725
 30
0.0
 40
0.1293712502625399
100
AcDbArc
 50
252.0267312821
 51
338.8763617873
  0
ARC
  5
3A8
330
1F
100
AcDbEntity
  8
0
  6
CONTINUOUS
 62
     7
100
AcDbCircle
 10
6.395988513
 20
5.0141046234
 30
0.0
 40
0.4027843704428095
100
AcDbArc
 50
347.8526886601
 51
29.8215768287
  0
ARC
  5
3A9
330
1F
100
AcDbEntity
  8
0
  6
CONTINUOUS
 62
     7
100
AcDbCircle
 10
6.3234735898
 20
5.0264917698
 30
0.0
 40
0.4609946001969835
100
AcDbArc
 50
26.7002277178
 51
64.9646729932
  0
ARC
  5
3AA
330
1F
100
AcDbEntity
  8
0
  6
CONTINUOUS
 62
     7
100
AcDbCircle
 10
6.4535842766
 20
5.3280998303
 30
0.0
 40
0.1312012316761123
100
AcDbArc
 50
67.6549905995
 51
159.0853425379
  0
LWPOLYLINE
  5
3AB
330
1F
100
AcDbEntity
  8
0
  6
CONTINUOUS
 62
     7
100
AcDbPolyline
 90
       47
 70
   128
 43
0.0
 10
6.4003860776
 20
5.4501818324
 10
6.4095803424
 20
5.4549486208
 10
6.4225451651
 20
5.4600265992
 10
6.4362372713
 20
5.4636097793
 10
6.4505899544
 20
5.4656807043
 10
6.4655332897
 20
5.4662292848
 10
6.4809944747
 20
5.4652528482
 10
6.496898184
 20
5.4627561516
 10
6.5131669365
 20
5.4587513587
 10
6.5297214723
 20
5.4532579803
 10
6.5464811395
 20
5.4463027797
 10
6.5633642865
 20
5.4379196419
 10
6.5802886605
 20
5.4281494088
 10
6.5971718076
 20
5.4170396799
 10
6.6139314748
 20
5.4046445807
 10
6.6304860106
 20
5.3910244988
 10
6.646754763
 20
5.37624579
 10
6.6626584724
 20
5.3603804546
 10
6.6781196574
 20
5.343505787
 10
6.6930629926
 20
5.3257039988
 10
6.7074156758
 20
5.3070618186
 10
6.721107782
 20
5.2876700692
 10
6.7340726046
 20
5.2676232252
 10
6.7462469804
 20
5.2470189528
 10
6.7575715971
 20
5.2259576341
 10
6.7679912821
 20
5.2045418775
 10
6.777455272
 20
5.1828760186
 10
6.785917459
 20
5.1610656112
 10
6.7933366162
 20
5.1392169135
 10
6.7996765983
 20
5.11743637
 10
6.8049065175
 20
5.0958300934
 10
6.8090008941
 20
5.0745033474
 10
6.8119397808
 20
5.0535600337
 10
6.8137088596
 20
5.0331021859
 10
6.8142995117
 20
5.0132294727
 10
6.8137088596
 20
4.994038712
 10
6.8119397808
 20
4.9756233991
 10
6.8090008941
 20
4.9580732517
 10
6.8049065175
 20
4.9414737723
 10
6.7996765983
 20
4.925905832
 10
6.7933366162
 20
4.911445276
 10
6.785917459
 20
4.8981625549
 10
6.777455272
 20
4.8861223806
 10
6.7679912821
 20
4.8753834118
 10
6.7575715971
 20
4.8659979675
 10
6.7462469804
 20
4.8580117728
 10
6.7432668695
 20
4.856230524
  0
LWPOLYLINE
  5
3AC
330
1F
100
AcDbEntity
  8
0
  6
CONTINUOUS
 62
     7
100
AcDbPolyline
 90
        3
 70
   128
 43
0.0
 10
6.628866515
 20
5.2507987362
 10
6.6540382742
 20
5.2360686754
 10
6.680221634
 20
5.2224708573
  0
LWPOLYLINE
  5
3AD
330
1F
100
AcDbEntity
  8
0
  6
CONTINUOUS
 62
     7
100
AcDbPolyline
 90
        3
 70
   128
 43
0.0
 10
6.4901298649
 20
5.4071176666
 10
6.500974954
 20
5.38479691
 10
6.5136461342
 20
5.3627187619
  0
LINE
  5
3AE
330
1F
100
AcDbEntity
  8
0
  6
CONTINUOUS
 62
     7
100
AcDbLine
 10
6.4901298649
 20
5.4071176666
 30
0.0
 11
6.4683927958
 21
5.4282321024
 31
0.0
  0
LINE
  5
3AF
330
1F
100
AcDbEntity
  8
0
  6
CONTINUOUS
 62
     7
100
AcDbLine
 10
6.4683927958
 20
5.4282321024
 30
0.0
 11
6.5101510702
 21
5.4523386412
 31
0.0
  0
LINE
  5
3B0
330
1F
100
AcDbEntity
  8
0
  6
CONTINUOUS
 62
     7
100
AcDbLine
 10
6.5185558953
 20
5.4441745627
 30
0.0
 11
6.5101510702
 21
5.4523386412
 31
0.0
  0
LINE
  5
3B1
330
1F
100
AcDbEntity
  8
0
  6
CONTINUOUS
 62
     7
100
AcDbLine
 10
6.7353121526
 20
5.2336270387
 30
0.0
 11
6.5185558953
 21
5.4441745627
 31
0.0
  0
LINE
  5
3B2
330
1F
100
AcDbEntity
  8
0
  6
CONTINUOUS
 62
     7
100
AcDbLine
 10
6.7437169776
 20
5.2254629602
 30
0.0
 11
6.7353121526
 21
5.2336270387
 31
0.0
  0
LINE
  5
3B3
330
1F
100
AcDbEntity
  8
0
  6
CONTINUOUS
 62
     7
100
AcDbLine
 10
6.7019587031
 20
5.2013564215
 30
0.0
 11
6.7437169776
 21
5.2254629602
 31
0.0
  0
LINE
  5
3B4
330
1F
100
AcDbEntity
  8
0
  6
CONTINUOUS
 62
     7
100
AcDbLine
 10
6.7019587031
 20
5.2013564215
 30
0.0
 11
6.680221634
 21
5.2224708573
 31
0.0
  0
LINE
  5
3B5
330
1F
100
AcDbEntity
  8
0
  6
CONTINUOUS
 62
     7
100
AcDbLine
 10
6.4092759661
 20
5.21161314
 30
0.0
 11
6.4171654859
 21
5.217116676
 31
0.0
  0
LINE
  5
3B6
330
1F
100
AcDbEntity
  8
0
  6
CONTINUOUS
 62
     7
100
AcDbLine
 10
6.3843911863
 20
5.2362092844
 30
0.0
 11
6.3757383637
 21
5.230173287
 31
0.0
  0
ARC
  5
3B7
330
1F
100
AcDbEntity
  8
0
  6
CONTINUOUS
 62
     7
100
AcDbCircle
 10
6.3736701307
 20
5.2047507086
 30
0.0
 40
0.0913638730174411
100
AcDbArc
 50
54.7222265457
 51
129.7363186358
  0
LWPOLYLINE
  5
3B8
330
1F
100
AcDbEntity
  8
0
  6
CONTINUOUS
 62
     7
100
AcDbPolyline
 90
       26
 70
   128
 43
0.0
 10
6.5768318892
 20
4.8861832737
 10
6.5899057694
 20
4.8908996282
 10
6.5983981589
 20
4.8965542179
 10
6.6059464691
 20
4.9036379572
 10
6.6175686182
 20
4.9212411505
 10
6.6218634897
 20
4.9320800054
 10
6.6250102087
 20
4.9441404139
 10
6.6276687853
 20
4.9705904397
 10
6.6272354824
 20
4.9854714675
 10
6.6255700738
 20
5.0012267252
 10
6.622795527
 20
5.0170945721
 10
6.6188644539
 20
5.0335803788
 10
6.6136961582
 20
5.0508325852
 10
6.6073491544
 20
5.0685015165
 10
6.6001922029
 20
5.0856796305
 10
6.5920013734
 20
5.1030070601
 10
6.5826682961
 20
5.120618305
 10
6.5723485612
 20
5.13813124
 10
6.5616394977
 20
5.1546125899
 10
6.5501397954
 20
5.1707556103
 10
6.5377272103
 20
5.1866641548
 10
6.5246375476
 20
5.2019696266
 10
6.4981415048
 20
5.2289763864
 10
6.4840866096
 20
5.241367434
 10
6.4697415666
 20
5.2527269508
 10
6.45920902
 20
5.26026059
  0
LINE
  5
3B9
330
1F
100
AcDbEntity
  8
0
  6
CONTINUOUS
 62
     7
100
AcDbLine
 10
6.45920902
 20
5.26026059
 30
0.0
 11
6.4656707658
 21
5.2639908765
 31
0.0
  0
ARC
  5
3BA
330
1F
100
AcDbEntity
  8
0
  6
CONTINUOUS
 62
     7
100
AcDbCircle
 10
6.3786529362
 20
5.2020617929
 30
0.0
 40
0.0974883320961493
100
AcDbArc
 50
56.1922737634
 51
115.938610843
  0
LWPOLYLINE
  5
3BB
330
1F
100
AcDbEntity
  8
0
  6
CONTINUOUS
 62
     7
100
AcDbPolyline
 90
       26
 70
   128
 43
0.0
 10
6.597582805
 20
4.8961163569
 10
6.6032005178
 20
4.898919325
 10
6.6110896671
 20
4.9056353098
 10
6.6179846132
 20
4.9137537624
 10
6.6282011822
 20
4.9332159295
 10
6.6317231079
 20
4.9449201409
 10
6.6340604375
 20
4.9577823724
 10
6.6350725493
 20
4.9855503381
 10
6.633772199
 20
5.0009784045
 10
6.6312258379
 20
5.0171908685
 10
6.6275963971
 20
5.0334150526
 10
6.6228094676
 20
5.0501657978
 10
6.6167791327
 20
5.0675897552
 10
6.6095840035
 20
5.0853305126
 10
6.6016303577
 20
5.1024944809
 10
6.5926693197
 20
5.1197143498
 10
6.5825897567
 20
5.1371209202
 10
6.5715669584
 20
5.1543336234
 10
6.5602362494
 20
5.1704402726
 10
6.5481694872
 20
5.1861250043
 10
6.5352442624
 20
5.2014859718
 10
6.5217126553
 20
5.2161633068
 10
6.4946240007
 20
5.2417400146
 10
6.4803908543
 20
5.2533121432
 10
6.4659563127
 20
5.2637960785
 10
6.4656707658
 20
5.2639908765
  0
LINE
  5
3BC
330
1F
100
AcDbEntity
  8
0
  6
CONTINUOUS
 62
     7
100
AcDbLine
 10
6.4328961917
 20
5.2830657689
 30
0.0
 11
6.4264365114
 21
5.2793366748
 31
0.0
  0
ARC
  5
3BD
330
1F
100
AcDbEntity
  8
0
  6
CONTINUOUS
 62
     7
100
AcDbCircle
 10
6.2684234939
 20
4.9603387705
 30
0.0
 40
0.3321781115277485
100
AcDbArc
 50
359.5546720122
 51
56.4587931686
  0
LWPOLYLINE
  5
3BE
330
1F
100
AcDbEntity
  8
0
  6
CONTINUOUS
 62
     7
100
AcDbPolyline
 90
        3
 70
   128
 43
0.0
 10
6.4519640479
 20
5.2372054583
 10
6.4524826337
 20
5.2388565899
 10
6.45920902
 20
5.26026059
  0
ARC
  5
3BF
330
1F
100
AcDbEntity
  8
0
  6
CONTINUOUS
 62
     7
100
AcDbCircle
 10
6.5164168962
 20
5.7972623712
 30
0.0
 40
0.0171932754893107
100
AcDbArc
 50
50.7967147643
 51
189.2140369905
  0
LINE
  5
3C0
330
1F
100
AcDbEntity
  8
0
  6
CONTINUOUS
 62
     7
100
AcDbLine
 10
6.5272843141
 20
5.8105855822
 30
0.0
 11
6.9170282092
 21
5.5855912207
 31
0.0
  0
ARC
  5
3C1
330
1F
100
AcDbEntity
  8
0
  6
CONTINUOUS
 62
     7
100
AcDbCircle
 10
6.8844254801
 20
5.5346224916
 30
0.0
 40
0.0605041262823674
100
AcDbArc
 50
2.6054784857
 51
57.39452166
  0
LINE
  5
3C2
330
1F
100
AcDbEntity
  8
0
  6
CONTINUOUS
 62
     7
100
AcDbLine
 10
6.9448670589
 20
5.5373729188
 30
0.0
 11
6.9448670589
 21
5.4248574526
 31
0.0
  0
LINE
  5
3C3
330
1F
100
AcDbEntity
  8
0
  6
CONTINUOUS
 62
     7
100
AcDbLine
 10
6.9309476341
 20
5.4328929655
 30
0.0
 11
6.9448670589
 21
5.4248574526
 31
0.0
  0
LINE
  5
3C4
330
1F
100
AcDbEntity
  8
0
  6
CONTINUOUS
 62
     7
100
AcDbLine
 10
6.5133648893
 20
5.6739583529
 30
0.0
 11
6.9309476341
 21
5.4328929655
 31
0.0
  0
LINE
  5
3C5
330
1F
100
AcDbEntity
  8
0
  6
CONTINUOUS
 62
     7
100
AcDbLine
 10
6.4994454644
 20
5.6819938658
 30
0.0
 11
6.5133648893
 21
5.6739583529
 31
0.0
  0
LINE
  5
3C6
330
1F
100
AcDbEntity
  8
0
  6
CONTINUOUS
 62
     7
100
AcDbLine
 10
6.4994454644
 20
5.6819938658
 30
0.0
 11
6.4994454644
 21
5.794509332
 31
0.0
  0
LWPOLYLINE
  5
3C7
330
1F
100
AcDbEntity
  8
0
  6
CONTINUOUS
 62
     7
100
AcDbPolyline
 90
        3
 70
   128
 43
0.0
 10
6.7236965167
 20
4.9639724147
 10
6.7338367478
 20
4.9427469212
 10
6.7452702187
 20
4.9227753725
  0
LWPOLYLINE
  5
3C8
330
1F
100
AcDbEntity
  8
0
  6
CONTINUOUS
 62
     7
100
AcDbPolyline
 90
        3
 70
   128
 43
0.0
 10
6.706403166
 20
5.1727694945
 10
6.702565998
 20
5.1441042324
 10
6.7001380184
 20
5.1155014266
  0
LINE
  5
3C9
330
1F
100
AcDbEntity
  8
0
  6
CONTINUOUS
 62
     7
100
AcDbLine
 10
6.706403166
 20
5.1727694945
 30
0.0
 11
6.7019587031
 21
5.2013564215
 31
0.0
  0
LINE
  5
3CA
330
1F
100
AcDbEntity
  8
0
  6
CONTINUOUS
 62
     7
100
AcDbLine
 10
6.7454354674
 20
5.2144095787
 30
0.0
 11
6.7437169776
 21
5.2254629602
 31
0.0
  0
LINE
  5
3CB
330
1F
100
AcDbEntity
  8
0
  6
CONTINUOUS
 62
     7
100
AcDbLine
 10
6.7897544662
 20
4.9293483659
 30
0.0
 11
6.7454354674
 21
5.2144095787
 31
0.0
  0
LINE
  5
3CC
330
1F
100
AcDbEntity
  8
0
  6
CONTINUOUS
 62
     7
100
AcDbLine
 10
6.7914729561
 20
4.9182949843
 30
0.0
 11
6.7897544662
 21
4.9293483659
 31
0.0
  0
LINE
  5
3CD
330
1F
100
AcDbEntity
  8
0
  6
CONTINUOUS
 62
     7
100
AcDbLine
 10
6.7497146816
 20
4.8941884456
 30
0.0
 11
6.7914729561
 21
4.9182949843
 31
0.0
  0
LINE
  5
3CE
330
1F
100
AcDbEntity
  8
0
  6
CONTINUOUS
 62
     7
100
AcDbLine
 10
6.7497146816
 20
4.8941884456
 30
0.0
 11
6.7452702187
 21
4.9227753725
 31
0.0
  0
LWPOLYLINE
  5
3CF
330
1F
100
AcDbEntity
  8
0
  6
CONTINUOUS
 62
     7
100
AcDbPolyline
 90
       15
 70
   128
 43
0.0
 10
6.4322453226
 20
4.854530104
 10
6.453561344
 20
4.8468802525
 10
6.4782424799
 20
4.8424834696
 10
6.4899933263
 20
4.8423954899
 10
6.5011012404
 20
4.8437930625
 10
6.5203086453
 20
4.8507220636
 10
6.5288010347
 20
4.8563766533
 10
6.536349345
 20
4.8634603926
 10
6.547971494
 20
4.881063586
 10
6.5522663655
 20
4.8919024408
 10
6.5554130846
 20
4.9039628493
 10
6.5580716612
 20
4.9304128751
 10
6.5576383583
 20
4.945293903
 10
6.5559729497
 20
4.9610491607
 10
6.554144108
 20
4.9721297859
  0
ARC
  5
3D0
330
1F
100
AcDbEntity
  8
0
  6
CONTINUOUS
 62
     7
100
AcDbCircle
 10
6.5247954464
 20
5.1779056766
 30
0.0
 40
0.3030854372450883
100
AcDbArc
 50
182.6577399282
 51
208.4964305804
  0
LWPOLYLINE
  5
3D1
330
1F
100
AcDbEntity
  8
0
  6
CONTINUOUS
 62
     7
100
AcDbPolyline
 90
       15
 70
   128
 43
0.0
 10
6.5279856808
 20
4.8559387923
 10
6.5336033936
 20
4.8587417604
 10
6.541492543
 20
4.8654577453
 10
6.5483874891
 20
4.8735761978
 10
6.558604058
 20
4.893038365
 10
6.5621259838
 20
4.9047425764
 10
6.5644633134
 20
4.9176048079
 10
6.5654754252
 20
4.9453727736
 10
6.5641750749
 20
4.9608008399
 10
6.5616287137
 20
4.9770133039
 10
6.557999273
 20
4.993237488
 10
6.5532123434
 20
5.0099882333
 10
6.5471820086
 20
5.0274121906
 10
6.5399868794
 20
5.0451529481
 10
6.5311751134
 20
5.0640518593
  0
ARC
  5
3D2
330
1F
100
AcDbEntity
  8
0
  6
CONTINUOUS
 62
     7
100
AcDbCircle
 10
6.1851677793
 20
4.9299413053
 30
0.0
 40
0.5750233541494113
100
AcDbArc
 50
24.9794227615
 51
30.5790320451
  0
LINE
  5
3D3
330
1F
100
AcDbEntity
  8
0
  6
CONTINUOUS
 62
     7
100
AcDbLine
 10
6.4458985802
 20
5.2329743364
 30
0.0
 11
6.4519640479
 21
5.2372054583
 31
0.0
  0
ARC
  5
3D4
330
1F
100
AcDbEntity
  8
0
  6
CONTINUOUS
 62
     7
100
AcDbCircle
 10
6.3536600956
 20
5.1197762935
 30
0.0
 40
0.1514342429337953
100
AcDbArc
 50
64.3592664762
 51
76.1238940035
  0
LINE
  5
3D5
330
1F
100
AcDbEntity
  8
0
  6
CONTINUOUS
 62
     7
100
AcDbLine
 10
6.4191897484
 20
5.2562980667
 30
0.0
 11
6.4105369258
 21
5.2502620693
 31
0.0
  0
LINE
  5
3D6
330
1F
100
AcDbEntity
  8
0
  6
CONTINUOUS
 62
     7
100
AcDbLine
 10
7.3735853435
 20
5.6080566982
 30
0.0
 11
7.3067721044
 21
5.5694862362
 31
0.0
  0
LINE
  5
3D7
330
1F
100
AcDbEntity
  8
0
  6
CONTINUOUS
 62
     7
100
AcDbLine
 10
7.3067721044
 20
5.5694862362
 30
0.0
 11
7.3067721044
 21
5.6337807883
 31
0.0
  0
LINE
  5
3D8
330
1F
100
AcDbEntity
  8
0
  6
CONTINUOUS
 62
     7
100
AcDbLine
 10
6.9448670589
 20
5.4248574526
 30
0.0
 11
7.3067721044
 21
5.6337807883
 31
0.0
  0
ARC
  5
3D9
330
1F
100
AcDbEntity
  8
0
  6
CONTINUOUS
 62
     7
100
AcDbCircle
 10
6.4405953494
 20
4.9689556457
 30
0.0
 40
0.0757263670302309
100
AcDbArc
 50
286.5668065806
 51
6.449282058
  0
LWPOLYLINE
  5
3DA
330
1F
100
AcDbEntity
  8
0
  6
CONTINUOUS
 62
     7
100
AcDbPolyline
 90
       23
 70
   128
 43
0.0
 10
6.391638833
 20
5.1926118742
 10
6.3830551327
 20
5.1969336188
 10
6.3711789561
 20
5.2017290324
 10
6.3595385471
 20
5.205037256
 10
6.348248876
 20
5.2068256148
 10
6.3374214486
 20
5.2070764456
 10
6.3271632056
 20
5.2057872709
 10
6.3175754655
 20
5.2029708237
 10
6.3087529249
 20
5.1986549215
 10
6.3007827222
 20
5.1928821916
 10
6.2937435776
 20
5.1857096503
 10
6.2877050155
 20
5.1772081394
 10
6.2827266776
 20
5.1674616267
 10
6.2788577341
 20
5.1565663768
 10
6.2761363978
 20
5.14463
 10
6.2745895468
 20
5.1317703896
 10
6.2742324591
 20
5.1181145576
 10
6.2750686615
 20
5.1037973802
 10
6.2770898951
 20
5.0889602654
 10
6.2802761964
 20
5.0737497566
 10
6.2845960951
 20
5.0583160853
 10
6.2900069242
 20
5.0428116869
 10
6.2929268679
 20
5.0355081902
  0
LINE
  5
3DB
330
1F
100
AcDbEntity
  8
0
  6
CONTINUOUS
 62
     7
100
AcDbLine
 10
6.494007582
 20
5.2803493723
 30
0.0
 11
6.5004693279
 21
5.2840796587
 31
0.0
  0
ARC
  5
3DC
330
1F
100
AcDbEntity
  8
0
  6
CONTINUOUS
 62
     7
100
AcDbCircle
 10
6.2692943053
 20
4.9516793869
 30
0.0
 40
0.4048849611858538
100
AcDbArc
 50
8.9461864664
 51
55.182474963
  0
LWPOLYLINE
  5
3DD
330
1F
100
AcDbEntity
  8
0
  6
CONTINUOUS
 62
     7
100
AcDbPolyline
 90
       21
 70
   128
 43
0.0
 10
6.653717882
 20
4.9443208543
 10
6.6598087708
 20
4.9642291962
 10
6.6624673474
 20
4.9906792219
 10
6.6620340445
 20
5.0055602498
 10
6.6603686359
 20
5.0213155075
 10
6.657594089
 20
5.0371833543
 10
6.6536630159
 20
5.0536691611
 10
6.6484947203
 20
5.0709213675
 10
6.6421477165
 20
5.0885902988
 10
6.634990765
 20
5.1057684128
 10
6.6267999354
 20
5.1230958424
 10
6.6174668581
 20
5.1407070873
 10
6.6071471232
 20
5.1582200223
 10
6.5964380597
 20
5.1747013722
 10
6.5849383575
 20
5.1908443926
 10
6.5725257724
 20
5.2067529371
 10
6.5594361097
 20
5.2220584089
 10
6.5329400668
 20
5.2490651686
 10
6.5188851716
 20
5.2614562163
 10
6.5045401286
 20
5.272815733
 10
6.494007582
 20
5.2803493723
  0
ARC
  5
3DE
330
1F
100
AcDbEntity
  8
0
  6
CONTINUOUS
 62
     7
100
AcDbCircle
 10
6.4084686927
 20
5.2248394909
 30
0.0
 40
0.0913638730171994
100
AcDbArc
 50
54.7222265456
 51
129.7363186361
  0
LWPOLYLINE
  5
3DF
330
1F
100
AcDbEntity
  8
0
  6
CONTINUOUS
 62
     7
100
AcDbPolyline
 90
        3
 70
   128
 43
0.0
 10
6.4612350735
 20
5.2994254571
 10
6.4544486277
 20
5.2778509181
 10
6.4539883104
 20
5.2763868489
  0
ARC
  5
3E0
330
1F
100
AcDbEntity
  8
0
  6
CONTINUOUS
 62
     7
100
AcDbCircle
 10
6.3884508232
 20
5.1398432653
 30
0.0
 40
0.1514572958279617
100
AcDbArc
 50
64.3601649651
 51
76.1229955147
  0
ARC
  5
3E1
330
1F
100
AcDbEntity
  8
0
  6
CONTINUOUS
 62
     7
100
AcDbCircle
 10
6.3038012793
 20
4.9808707531
 30
0.0
 40
0.3314887524207416
100
AcDbArc
 50
359.3538718244
 51
56.4999112816
  0
LWPOLYLINE
  5
3E2
330
1F
100
AcDbEntity
  8
0
  6
CONTINUOUS
 62
     7
100
AcDbPolyline
 90
        3
 70
   128
 43
0.0
 10
6.48676261
 20
5.2572942406
 10
6.4872804292
 20
5.2589429316
 10
6.494007582
 20
5.2803493723
  0
LINE
  5
3E3
330
1F
100
AcDbEntity
  8
0
  6
CONTINUOUS
 62
     7
100
AcDbLine
 10
6.8055635435
 20
4.9437912584
 30
0.0
 11
6.8758714644
 21
5.0131318178
 31
0.0
  0
LINE
  5
3E4
330
1F
100
AcDbEntity
  8
0
  6
CONTINUOUS
 62
     7
100
AcDbLine
 10
6.5315334761
 20
5.505587465
 30
0.0
 11
6.4894701062
 21
5.4641028419
 31
0.0
  0
LINE
  5
3E5
330
1F
100
AcDbEntity
  8
0
  6
CONTINUOUS
 62
     7
100
AcDbLine
 10
6.7771168827
 20
5.3317639504
 30
0.0
 11
6.5315334761
 21
5.505587465
 31
0.0
  0
LINE
  5
3E6
330
1F
100
AcDbEntity
  8
0
  6
CONTINUOUS
 62
     7
100
AcDbLine
 10
6.8758714644
 20
5.0131318178
 30
0.0
 11
6.7771168827
 21
5.3317639504
 31
0.0
  0
ARC
  5
3E7
330
1F
100
AcDbEntity
  8
0
  6
CONTINUOUS
 62
     7
100
AcDbCircle
 10
6.434909006
 20
5.0683730204
 30
0.0
 40
0.3646076840490894
100
AcDbArc
 50
12.2772231348
 51
25.0602920901
  0
LINE
  5
3E8
330
1F
100
AcDbEntity
  8
0
  6
CONTINUOUS
 62
     7
100
AcDbLine
 10
6.4806971422
 20
5.2530631186
 30
0.0
 11
6.48676261
 21
5.2572942406
 31
0.0
  0
LINE
  5
3E9
330
1F
100
AcDbEntity
  8
0
  6
CONTINUOUS
 62
     7
100
AcDbLine
 10
6.4539883104
 20
5.2763868489
 30
0.0
 11
6.4453354878
 21
5.2703508516
 31
0.0
  0
LWPOLYLINE
  5
3EA
330
1F
100
AcDbEntity
  8
0
  6
CONTINUOUS
 62
     7
100
AcDbPolyline
 90
        3
 70
   128
 43
0.0
 10
6.4917246536
 20
5.3058166975
 10
6.4892471898
 20
5.2979397004
 10
6.4887868725
 20
5.2964756312
  0
ARC
  5
3EB
330
1F
100
AcDbEntity
  8
0
  6
CONTINUOUS
 62
     7
100
AcDbCircle
 10
6.4232519999
 20
5.1599386289
 30
0.0
 40
0.151450231193802
100
AcDbArc
 50
64.3599793473
 51
76.1270423414
  0
ARC
  5
3EC
330
1F
100
AcDbEntity
  8
0
  6
CONTINUOUS
 62
     7
100
AcDbCircle
 10
6.2999058995
 20
4.9712798542
 30
0.0
 40
0.3779288421800379
100
AcDbArc
 50
29.4474447776
 51
54.0909697839
  0
LWPOLYLINE
  5
3ED
330
1F
100
AcDbEntity
  8
0
  6
CONTINUOUS
 62
     7
100
AcDbPolyline
 90
        3
 70
   128
 43
0.0
 10
6.5215611721
 20
5.2773830228
 10
6.5220789913
 20
5.2790317138
 10
6.5241363436
 20
5.2855793927
  0
ARC
  5
3EE
330
1F
100
AcDbEntity
  8
0
  6
CONTINUOUS
 62
     7
100
AcDbCircle
 10
6.4679092858
 20
4.9177715641
 30
0.0
 40
0.060830303501006
100
AcDbArc
 50
305.307677615
 51
332.2437660754
  0
LINE
  5
3EF
330
1F
100
AcDbEntity
  8
0
  6
CONTINUOUS
 62
     7
100
AcDbLine
 10
6.8507405173
 20
5.3060033556
 30
0.0
 11
6.823169957
 21
5.342013297
 31
0.0
  0
LINE
  5
3F0
330
1F
100
AcDbEntity
  8
0
  6
CONTINUOUS
 62
     7
100
AcDbLine
 10
6.9136032284
 20
5.103176516
 30
0.0
 11
6.8507405173
 21
5.3060033556
 31
0.0
  0
LINE
  5
3F1
330
1F
100
AcDbEntity
  8
0
  6
CONTINUOUS
 62
     7
100
AcDbLine
 10
6.9133349391
 20
5.0510955487
 30
0.0
 11
6.9136032284
 21
5.103176516
 31
0.0
  0
LINE
  5
3F2
330
1F
100
AcDbEntity
  8
0
  6
CONTINUOUS
 62
     7
100
AcDbLine
 10
6.9133349391
 20
5.0510955487
 30
0.0
 11
6.9176297389
 21
5.0372383566
 31
0.0
  0
LINE
  5
3F3
330
1F
100
AcDbEntity
  8
0
  6
CONTINUOUS
 62
     7
100
AcDbLine
 10
6.8758714644
 20
5.0131318178
 30
0.0
 11
6.9176297389
 21
5.0372383566
 31
0.0
  0
LINE
  5
3F4
330
1F
100
AcDbEntity
  8
0
  6
CONTINUOUS
 62
     7
100
AcDbLine
 10
6.7771168827
 20
5.3317639504
 30
0.0
 11
6.8188751572
 21
5.3558704892
 31
0.0
  0
LINE
  5
3F5
330
1F
100
AcDbEntity
  8
0
  6
CONTINUOUS
 62
     7
100
AcDbLine
 10
6.8188751572
 20
5.3558704892
 30
0.0
 11
6.823169957
 21
5.342013297
 31
0.0
  0
LINE
  5
3F6
330
1F
100
AcDbEntity
  8
0
  6
CONTINUOUS
 62
     7
100
AcDbLine
 10
6.5153699967
 20
5.2730642104
 30
0.0
 11
6.5215611721
 21
5.2773830228
 31
0.0
  0
LINE
  5
3F7
330
1F
100
AcDbEntity
  8
0
  6
CONTINUOUS
 62
     7
100
AcDbLine
 10
6.4887868725
 20
5.2964756312
 30
0.0
 11
6.4801340499
 21
5.2904396339
 31
0.0
  0
ARC
  5
3F8
330
1F
100
AcDbEntity
  8
0
  6
CONTINUOUS
 62
     7
100
AcDbCircle
 10
6.9309941797
 20
4.8251162748
 30
0.0
 40
0.0305143163427494
100
AcDbArc
 50
242.7621205128
 51
295.1231555554
  0
ARC
  5
3F9
330
1F
100
AcDbEntity
  8
0
  6
CONTINUOUS
 62
     7
100
AcDbCircle
 10
6.9309941797
 20
5.4519881579
 30
0.0
 40
0.0305143163427546
100
AcDbArc
 50
242.7621205128
 51
295.1231555554
  0
LINE
  5
3FA
330
1F
100
AcDbEntity
  8
0
  6
CONTINUOUS
 62
     7
100
AcDbLine
 10
6.9439495016
 20
5.4243605786
 30
0.0
 11
6.9439495016
 21
5.4231049279
 31
0.0
  0
ARC
  5
3FB
330
1F
100
AcDbEntity
  8
0
  6
CONTINUOUS
 62
     7
100
AcDbCircle
 10
6.9351482407
 20
5.440453509
 30
0.0
 40
0.0194534176653407
100
AcDbArc
 50
296.8995360831
 51
299.9731682
  0
ARC
  5
3FC
330
1F
100
AcDbEntity
  8
0
  6
CONTINUOUS
 62
     7
100
AcDbCircle
 10
6.9351482407
 20
4.8168034676
 30
0.0
 40
0.019453417665704
100
AcDbArc
 50
296.8995360831
 51
299.9731682
  0
LINE
  5
3FD
330
1F
100
AcDbEntity
  8
0
  6
CONTINUOUS
 62
     7
100
AcDbLine
 10
6.9439495016
 20
4.7994548865
 30
0.0
 11
6.9439495016
 21
4.7974886955
 31
0.0
  0
LINE
  5
3FE
330
1F
100
AcDbEntity
  8
0
  6
CONTINUOUS
 62
     7
100
AcDbLine
 10
6.9170282092
 20
5.4248574526
 30
0.0
 11
6.4994454644
 21
5.66592284
 31
0.0
  0
ARC
  5
3FF
330
1F
100
AcDbEntity
  8
0
  6
CONTINUOUS
 62
     7
100
AcDbCircle
 10
6.5024584749
 20
5.6739397165
 30
0.0
 40
0.0085643762591232
100
AcDbArc
 50
111.9647564648
 51
249.4020996579
  0
LINE
  5
400
330
1F
100
AcDbEntity
  8
0
  6
CONTINUOUS
 62
     7
100
AcDbLine
 10
6.5131731929
 20
5.673847689
 30
0.0
 11
6.4992550882
 21
5.6818824398
 31
0.0
  0
LINE
  5
401
330
1F
100
AcDbEntity
  8
0
  6
CONTINUOUS
 62
     7
100
AcDbLine
 10
6.5131731929
 20
5.673847689
 30
0.0
 11
6.5133648893
 21
5.6739583529
 31
0.0
  0
LINE
  5
402
330
1F
100
AcDbEntity
  8
0
  6
CONTINUOUS
 62
     7
100
AcDbLine
 10
6.9309476341
 20
5.4328929655
 30
0.0
 11
6.9300585033
 21
5.4323796813
 31
0.0
  0
LINE
  5
403
330
1F
100
AcDbEntity
  8
0
  6
CONTINUOUS
 62
     7
100
AcDbLine
 10
6.9300585033
 20
5.4323796813
 30
0.0
 11
6.9439495016
 21
5.4243605786
 31
0.0
  0
LINE
  5
404
330
1F
100
AcDbEntity
  8
0
  6
CONTINUOUS
 62
     7
100
AcDbLine
 10
6.5057563298
 20
5.2985063889
 30
0.0
 11
6.372480159
 21
5.2215676932
 31
0.0
  0
ARC
  5
405
330
1F
100
AcDbEntity
  8
0
  6
CONTINUOUS
 62
     7
100
AcDbCircle
 10
6.4939971194
 20
5.1005513751
 30
0.0
 40
0.4056887387305195
100
AcDbArc
 50
9.0531980062
 51
25.3866595411
  0
LWPOLYLINE
  5
406
330
1F
100
AcDbEntity
  8
0
  6
CONTINUOUS
 62
     7
100
AcDbPolyline
 90
        3
 70
   128
 43
0.0
 10
6.737818547
 20
5.431129877
 10
6.7345400264
 20
5.4335866841
 10
6.7211977657
 20
5.4428940375
  0
LINE
  5
407
330
1F
100
AcDbEntity
  8
0
  6
CONTINUOUS
 62
     7
100
AcDbLine
 10
6.7732146893
 20
4.8810073474
 30
0.0
 11
6.9170282092
 21
4.7979855695
 31
0.0
  0
LINE
  5
408
330
1F
100
AcDbEntity
  8
0
  6
CONTINUOUS
 62
     7
100
AcDbLine
 10
6.9311460466
 20
5.4317518559
 30
0.0
 11
6.9320351773
 21
5.4322651402
 31
0.0
  0
LINE
  5
409
330
1F
100
AcDbEntity
  8
0
  6
CONTINUOUS
 62
     7
100
AcDbLine
 10
6.9465634006
 20
5.4258367298
 30
0.0
 11
6.9476509438
 21
5.4252089045
 31
0.0
  0
LINE
  5
40A
330
1F
100
AcDbEntity
  8
0
  6
CONTINUOUS
 62
     7
100
AcDbLine
 10
6.9448670589
 20
5.4236018019
 30
0.0
 11
6.9476509438
 21
5.4252089045
 31
0.0
  0
LINE
  5
40B
330
1F
100
AcDbEntity
  8
0
  6
CONTINUOUS
 62
     7
100
AcDbLine
 10
6.9476509438
 20
5.425178511
 30
0.0
 11
6.9476509438
 21
5.4252089045
 31
0.0
  0
LINE
  5
40C
330
1F
100
AcDbEntity
  8
0
  6
CONTINUOUS
 62
     7
100
AcDbLine
 10
7.2956365645
 20
5.6260663338
 30
0.0
 11
6.9476509438
 21
5.425178511
 31
0.0
  0
LINE
  5
40D
330
1F
100
AcDbEntity
  8
0
  6
CONTINUOUS
 62
     7
100
AcDbLine
 10
7.2956365645
 20
5.6260663338
 30
0.0
 11
7.2956365645
 21
5.561855079
 31
0.0
  0
LINE
  5
40E
330
1F
100
AcDbEntity
  8
0
  6
CONTINUOUS
 62
     7
100
AcDbLine
 10
7.3373994743
 20
5.5859642936
 30
0.0
 11
7.2956365645
 21
5.561855079
 31
0.0
  0
LINE
  5
40F
330
1F
100
AcDbEntity
  8
0
  6
CONTINUOUS
 62
     7
100
AcDbLine
 10
7.3373994743
 20
5.52502144
 30
0.0
 11
7.2956365645
 21
5.5009122253
 31
0.0
  0
LINE
  5
410
330
1F
100
AcDbEntity
  8
0
  6
CONTINUOUS
 62
     7
100
AcDbLine
 10
7.2956365645
 20
5.5009122253
 30
0.0
 11
7.2956365645
 21
5.1283120079
 31
0.0
  0
LINE
  5
411
330
1F
100
AcDbEntity
  8
0
  6
CONTINUOUS
 62
     7
100
AcDbLine
 10
7.337394839
 20
5.1524185466
 30
0.0
 11
7.2956365645
 21
5.1283120079
 31
0.0
  0
LINE
  5
412
330
1F
100
AcDbEntity
  8
0
  6
CONTINUOUS
 62
     7
100
AcDbLine
 10
7.337394839
 20
5.090888017
 30
0.0
 11
7.2956365645
 21
5.0667814783
 31
0.0
  0
LINE
  5
413
330
1F
100
AcDbEntity
  8
0
  6
CONTINUOUS
 62
     7
100
AcDbLine
 10
7.2956365645
 20
5.0667814783
 30
0.0
 11
7.2956365645
 21
5.0024466859
 31
0.0
  0
LINE
  5
414
330
1F
100
AcDbEntity
  8
0
  6
CONTINUOUS
 62
     7
100
AcDbLine
 10
7.2956365645
 20
5.0024466859
 30
0.0
 11
6.9448670589
 21
4.7999517605
 31
0.0
  0
LINE
  5
415
330
1F
100
AcDbEntity
  8
0
  6
CONTINUOUS
 62
     7
100
AcDbLine
 10
7.2945226969
 20
5.6267093559
 30
0.0
 11
7.2956365645
 21
5.6260663338
 31
0.0
  0
LWPOLYLINE
  5
416
330
1F
100
AcDbEntity
  8
0
  6
CONTINUOUS
 62
     7
100
AcDbPolyline
 90
        3
 70
   128
 43
0.0
 10
6.4264365114
 20
5.2793366748
 10
6.4196501302
 20
5.257762341
 10
6.4191897484
 20
5.2562980667
  0
LINE
  5
417
330
1F
100
AcDbEntity
  8
0
  6
CONTINUOUS
 62
     7
100
AcDbLine
 10
6.4676947538
 20
5.3031545512
 30
0.0
 11
6.4612350735
 21
5.2994254571
 31
0.0
  0
LWPOLYLINE
  5
418
330
1F
100
AcDbEntity
  8
0
  6
CONTINUOUS
 62
     7
100
AcDbPolyline
 90
        3
 70
   128
 43
0.0
 10
6.4105369258
 20
5.2502620693
 10
6.4100585291
 20
5.2507514545
 10
6.3980976296
 20
5.2629769866
  0
LINE
  5
419
330
1F
100
AcDbEntity
  8
0
  6
CONTINUOUS
 62
     7
100
AcDbLine
 10
6.3757383637
 20
5.230173287
 30
0.0
 11
6.372480159
 21
5.2335056621
 31
0.0
  0
LWPOLYLINE
  5
41A
330
1F
100
AcDbEntity
  8
0
  6
CONTINUOUS
 62
     7
100
AcDbPolyline
 90
        3
 70
   128
 43
0.0
 10
6.4801340499
 20
5.2904396339
 10
6.4796552473
 20
5.2909294343
 10
6.4676947538
 20
5.3031545512
  0
LWPOLYLINE
  5
41B
330
1F
100
AcDbEntity
  8
0
  6
CONTINUOUS
 62
     7
100
AcDbPolyline
 90
        3
 70
   128
 43
0.0
 10
6.4453354878
 20
5.2703508516
 10
6.4448566852
 20
5.270840652
 10
6.4328961917
 20
5.2830657689
  0
LWPOLYLINE
  5
41C
330
1F
100
AcDbEntity
  8
0
  6
CONTINUOUS
 62
     7
100
AcDbPolyline
 90
        3
 70
   128
 43
0.0
 10
6.4073993477
 20
5.3998549352
 10
6.4287077756
 20
5.409973945
 10
6.4511001895
 20
5.4207596113
  0
ARC
  5
41D
330
1F
100
AcDbEntity
  8
0
  6
CONTINUOUS
 62
     7
100
AcDbCircle
 10
6.3951895356
 20
5.1981459119
 30
0.0
 40
0.2295274719866773
100
AcDbArc
 50
65.5666877852
 51
75.9014629086
  0
LINE
  5
41E
330
1F
100
AcDbEntity
  8
0
  6
CONTINUOUS
 62
     7
100
AcDbLine
 10
6.6318392205
 20
5.5061418628
 30
0.0
 11
6.583972081
 21
5.5221344842
 31
0.0
  0
LINE
  5
41F
330
1F
100
AcDbEntity
  8
0
  6
CONTINUOUS
 62
     7
100
AcDbLine
 10
6.8081948268
 20
5.3634300087
 30
0.0
 11
6.788166537
 21
5.3954936559
 31
0.0
  0
LINE
  5
420
330
1F
100
AcDbEntity
  8
0
  6
CONTINUOUS
 62
     7
100
AcDbLine
 10
6.8081948268
 20
5.3634300087
 30
0.0
 11
6.8188751572
 21
5.3558704892
 31
0.0
  0
LINE
  5
421
330
1F
100
AcDbEntity
  8
0
  6
CONTINUOUS
 62
     7
100
AcDbLine
 10
6.5315334761
 20
5.505587465
 30
0.0
 11
6.5732917506
 21
5.5296940038
 31
0.0
  0
LINE
  5
422
330
1F
100
AcDbEntity
  8
0
  6
CONTINUOUS
 62
     7
100
AcDbLine
 10
6.5732917506
 20
5.5296940038
 30
0.0
 11
6.583972081
 21
5.5221344842
 31
0.0
  0
LINE
  5
423
330
1F
100
AcDbEntity
  8
0
  6
CONTINUOUS
 62
     7
100
AcDbLine
 10
6.788166537
 20
5.3954936559
 30
0.0
 11
6.6318392205
 21
5.5061418628
 31
0.0
  0
ARC
  5
424
330
1F
100
AcDbEntity
  8
0
  6
CONTINUOUS
 62
     7
100
AcDbCircle
 10
6.3992114951
 20
5.02101987
 30
0.0
 40
0.4179261504422908
100
AcDbArc
 50
28.8709258697
 51
39.6972870051
  0
ARC
  5
425
330
1F
100
AcDbEntity
  8
0
  6
CONTINUOUS
 62
     7
100
AcDbCircle
 10
6.568045345
 20
4.9656028074
 30
0.0
 40
0.1823262050653023
100
AcDbArc
 50
334.3629540798
 51
346.4145920915
  0
LWPOLYLINE
  5
426
330
1F
100
AcDbEntity
  8
0
  6
CONTINUOUS
 62
     7
100
AcDbPolyline
 90
        3
 70
   128
 43
0.0
 10
6.7324220753
 20
4.8867159545
 10
6.7101290868
 20
4.8759778672
 10
6.6887212336
 20
4.8658112783
  0
LINE
  5
427
330
1F
100
AcDbEntity
  8
0
  6
CONTINUOUS
 62
     7
100
AcDbLine
 10
6.4683927958
 20
5.4282321024
 30
0.0
 11
6.4511001895
 21
5.4207596113
 31
0.0
  0
ARC
  5
428
330
1F
100
AcDbEntity
  8
0
  6
CONTINUOUS
 62
     7
100
AcDbCircle
 10
6.3766069939
 20
5.0410985196
 30
0.0
 40
0.5431180075412465
100
AcDbArc
 50
29.1926850984
 51
40.7318381806
  0
ARC
  5
429
330
1F
100
AcDbEntity
  8
0
  6
CONTINUOUS
 62
     7
100
AcDbCircle
 10
6.413637467
 20
5.2204954741
 30
0.0
 40
0.0987659519558394
100
AcDbArc
 50
56.8161633565
 51
115.5944076491
  0
LWPOLYLINE
  5
42A
330
1F
100
AcDbEntity
  8
0
  6
CONTINUOUS
 62
     7
100
AcDbPolyline
 90
        3
 70
   128
 43
0.0
 10
6.2998754731
 20
5.3554122986
 10
6.3069469988
 20
5.3573632224
 10
6.3157374652
 20
5.360245949
  0
LINE
  5
42B
330
1F
100
AcDbEntity
  8
0
  6
CONTINUOUS
 62
     7
100
AcDbLine
 10
6.2998754731
 20
5.3554122986
 30
0.0
 11
6.2825828669
 21
5.3479398075
 31
0.0
  0
LINE
  5
42C
330
1F
100
AcDbEntity
  8
0
  6
CONTINUOUS
 62
     7
100
AcDbLine
 10
6.2825828669
 20
5.3479398075
 30
0.0
 11
6.3243411413
 21
5.3720463462
 31
0.0
  0
LINE
  5
42D
330
1F
100
AcDbEntity
  8
0
  6
CONTINUOUS
 62
     7
100
AcDbLine
 10
6.3310274765
 20
5.3749356493
 30
0.0
 11
6.3243411413
 21
5.3720463462
 31
0.0
  0
LINE
  5
42E
330
1F
100
AcDbEntity
  8
0
  6
CONTINUOUS
 62
     7
100
AcDbLine
 10
6.5034647351
 20
5.4494493381
 30
0.0
 11
6.3310274765
 21
5.3749356493
 31
0.0
  0
LINE
  5
42F
330
1F
100
AcDbEntity
  8
0
  6
CONTINUOUS
 62
     7
100
AcDbLine
 10
6.5101510702
 20
5.4523386412
 30
0.0
 11
6.5034647351
 21
5.4494493381
 31
0.0
  0
LINE
  5
430
330
1F
100
AcDbEntity
  8
0
  6
CONTINUOUS
 62
     7
100
AcDbLine
 10
6.7324220753
 20
4.8867159545
 30
0.0
 11
6.7497146816
 21
4.8941884456
 31
0.0
  0
LINE
  5
431
330
1F
100
AcDbEntity
  8
0
  6
CONTINUOUS
 62
     7
100
AcDbLine
 10
6.9048670539
 20
5.0189588768
 30
0.0
 11
6.9112442082
 21
5.030940684
 31
0.0
  0
LINE
  5
432
330
1F
100
AcDbEntity
  8
0
  6
CONTINUOUS
 62
     7
100
AcDbLine
 10
6.7924872929
 20
4.9112721883
 30
0.0
 11
6.8114024486
 21
4.9267802441
 31
0.0
  0
LINE
  5
433
330
1F
100
AcDbEntity
  8
0
  6
CONTINUOUS
 62
     7
100
AcDbLine
 10
6.9176297389
 20
5.0372383566
 30
0.0
 11
6.9112442082
 21
5.030940684
 31
0.0
  0
LINE
  5
434
330
1F
100
AcDbEntity
  8
0
  6
CONTINUOUS
 62
     7
100
AcDbLine
 10
6.8114024486
 20
4.9267802441
 30
0.0
 11
6.9048670539
 21
5.0189588768
 31
0.0
  0
LWPOLYLINE
  5
435
330
1F
100
AcDbEntity
  8
0
  6
CONTINUOUS
 62
     7
100
AcDbPolyline
 90
        3
 70
   128
 43
0.0
 10
6.9136032284
 20
5.103176516
 10
6.913968949
 20
5.0916903378
 10
6.9139981836
 20
5.0874570663
  0
ARC
  5
436
330
1F
100
AcDbEntity
  8
0
  6
CONTINUOUS
 62
     7
100
AcDbCircle
 10
7.3654135387
 20
5.626092542
 30
0.0
 40
0.0198007589958125
100
AcDbArc
 50
294.3746582936
 51
354.3052007488
  0
ARC
  5
437
330
1F
100
AcDbEntity
  8
0
  6
CONTINUOUS
 62
     7
100
AcDbCircle
 10
7.1219770195
 20
5.959819344
 30
0.0
 40
0.0136391380840081
100
AcDbArc
 50
34.4571835624
 51
85.5481929703
  0
LINE
  5
438
330
1F
100
AcDbEntity
  8
0
  6
CONTINUOUS
 62
     7
100
AcDbLine
 10
7.2065522456
 20
5.925204255
 30
0.0
 11
7.1230356967
 21
5.9734173325
 31
0.0
  0
LWPOLYLINE
  5
439
330
1F
100
AcDbEntity
  8
0
  6
CONTINUOUS
 62
     7
100
AcDbPolyline
 90
        3
 70
   128
 43
0.0
 10
7.2065522456
 20
5.925204255
 10
7.2095800387
 20
5.9246159538
 10
7.2123162604
 20
5.9234247963
  0
LWPOLYLINE
  5
43A
330
1F
100
AcDbEntity
  8
0
  6
CONTINUOUS
 62
     7
100
AcDbPolyline
 90
        3
 70
   128
 43
0.0
 10
6.2807621821
 20
5.2620848126
 10
6.2831757506
 20
5.2905574603
 10
6.2870273297
 20
5.3193528806
  0
ARC
  5
43B
330
1F
100
AcDbEntity
  8
0
  6
CONTINUOUS
 62
     7
100
AcDbCircle
 10
6.4642522035
 20
5.2765254457
 30
0.0
 40
0.1823262050651964
100
AcDbArc
 50
154.3629540798
 51
166.4145920915
  0
LINE
  5
43C
330
1F
100
AcDbEntity
  8
0
  6
CONTINUOUS
 62
     7
100
AcDbLine
 10
7.3050342956
 20
5.0722066729
 30
0.0
 11
7.3067721044
 21
5.0712034573
 31
0.0
  0
LINE
  5
43D
330
1F
100
AcDbEntity
  8
0
  6
CONTINUOUS
 62
     7
100
AcDbLine
 10
7.3067721044
 20
5.0069089052
 30
0.0
 11
7.3067721044
 21
5.0712034573
 31
0.0
  0
LINE
  5
43E
330
1F
100
AcDbEntity
  8
0
  6
CONTINUOUS
 62
     7
100
AcDbLine
 10
7.2956365645
 20
5.0133373155
 30
0.0
 11
7.3067721044
 21
5.0069089052
 31
0.0
  0
LINE
  5
43F
330
1F
100
AcDbEntity
  8
0
  6
CONTINUOUS
 62
     7
100
AcDbLine
 10
7.3067721044
 20
5.5694862362
 30
0.0
 11
7.2956365645
 21
5.5759146465
 31
0.0
  0
LINE
  5
440
330
1F
100
AcDbEntity
  8
0
  6
CONTINUOUS
 62
     7
100
AcDbLine
 10
7.304910856
 20
5.5062661599
 30
0.0
 11
7.3067721044
 21
5.5051916841
 31
0.0
  0
LINE
  5
441
330
1F
100
AcDbEntity
  8
0
  6
CONTINUOUS
 62
     7
100
AcDbLine
 10
7.3067721044
 20
5.1354980094
 30
0.0
 11
7.3067721044
 21
5.5051916841
 31
0.0
  0
LINE
  5
442
330
1F
100
AcDbEntity
  8
0
  6
CONTINUOUS
 62
     7
100
AcDbLine
 10
7.3067721044
 20
5.1354980094
 30
0.0
 11
7.2956365645
 21
5.1419264197
 31
0.0
  0
ARC
  5
443
330
1F
100
AcDbEntity
  8
0
  6
CONTINUOUS
 62
     7
100
AcDbCircle
 10
6.6371080129
 20
5.0439823412
 30
0.0
 40
0.2295274719866999
100
AcDbArc
 50
245.5666877852
 51
255.9014629086
  0
LWPOLYLINE
  5
444
330
1F
100
AcDbEntity
  8
0
  6
CONTINUOUS
 62
     7
100
AcDbPolyline
 90
        3
 70
   128
 43
0.0
 10
6.5421676836
 20
4.8350105865
 10
6.5161011315
 20
4.8485441796
 10
6.5154032428
 20
4.8489524576
  0
LWPOLYLINE
  5
445
330
1F
100
AcDbEntity
  8
0
  6
CONTINUOUS
 62
     7
100
AcDbPolyline
 90
        3
 70
   128
 43
0.0
 10
6.597059351
 20
4.8262022921
 10
6.5883047228
 20
4.8233304366
 10
6.5811973589
 20
4.8213686418
  0
ARC
  5
446
330
1F
100
AcDbEntity
  8
0
  6
CONTINUOUS
 62
     7
100
AcDbCircle
 10
7.3313534328
 20
5.5972772116
 30
0.0
 40
0.0128271871640159
100
AcDbArc
 50
298.1216941303
 51
323.3244712285
  0
LINE
  5
447
330
1F
100
AcDbEntity
  8
0
  6
CONTINUOUS
 62
     7
100
AcDbLine
 10
6.2825828669
 20
5.3479398075
 30
0.0
 11
6.2870273297
 21
5.3193528806
 31
0.0
  0
LINE
  5
448
330
1F
100
AcDbEntity
  8
0
  6
CONTINUOUS
 62
     7
100
AcDbLine
 10
7.3735853435
 20
5.6080566982
 30
0.0
 11
7.3735853435
 21
5.5598331719
 31
0.0
  0
LINE
  5
449
330
1F
100
AcDbEntity
  8
0
  6
CONTINUOUS
 62
     7
100
AcDbLine
 10
7.3431650888
 20
5.5422719326
 30
0.0
 11
7.3735853435
 21
5.5598331719
 31
0.0
  0
LINE
  5
44A
330
1F
100
AcDbEntity
  8
0
  6
CONTINUOUS
 62
     7
100
AcDbLine
 10
6.500341329
 20
5.6814766942
 30
0.0
 11
6.5001496327
 21
5.6813660303
 31
0.0
  0
ARC
  5
44B
330
1F
100
AcDbEntity
  8
0
  6
CONTINUOUS
 62
     7
100
AcDbCircle
 10
7.3334755166
 20
5.5339231638
 30
0.0
 40
0.0097282131730944
100
AcDbArc
 50
293.7883045547
 51
354.8915544877
  0
LINE
  5
44C
330
1F
100
AcDbEntity
  8
0
  6
CONTINUOUS
 62
     7
100
AcDbLine
 10
6.5421676836
 20
4.8350105865
 30
0.0
 11
6.5639047527
 21
4.8138961506
 31
0.0
  0
LINE
  5
44D
330
1F
100
AcDbEntity
  8
0
  6
CONTINUOUS
 62
     7
100
AcDbLine
 10
6.5639047527
 20
4.8138961506
 30
0.0
 11
6.5811973589
 21
4.8213686418
 31
0.0
  0
ARC
  5
44E
330
1F
100
AcDbEntity
  8
0
  6
CONTINUOUS
 62
     7
100
AcDbCircle
 10
7.3674858543
 20
5.5598331719
 30
0.0
 40
0.0171895794029268
100
AcDbArc
 50
290.7834207995
 51
69.2165792005
  0
LINE
  5
44F
330
1F
100
AcDbEntity
  8
0
  6
CONTINUOUS
 62
     7
100
AcDbLine
 10
7.3067721044
 20
5.5051916841
 30
0.0
 11
7.3735853435
 21
5.5437621461
 31
0.0
  0
LINE
  5
450
330
1F
100
AcDbEntity
  8
0
  6
CONTINUOUS
 62
     7
100
AcDbLine
 10
7.3735853435
 20
5.1740684714
 30
0.0
 11
7.3067721044
 21
5.1354980094
 31
0.0
  0
LINE
  5
451
330
1F
100
AcDbEntity
  8
0
  6
CONTINUOUS
 62
     7
100
AcDbLine
 10
7.3067721044
 20
5.0712034573
 30
0.0
 11
7.3735853435
 21
5.1097739193
 31
0.0
  0
LINE
  5
452
330
1F
100
AcDbEntity
  8
0
  6
CONTINUOUS
 62
     7
100
AcDbLine
 10
6.9448670589
 20
4.7979855695
 30
0.0
 11
6.9448670589
 21
4.6854701033
 31
0.0
  0
LINE
  5
453
330
1F
100
AcDbEntity
  8
0
  6
CONTINUOUS
 62
     7
100
AcDbLine
 10
7.3067721044
 20
5.0069089052
 30
0.0
 11
6.9448670589
 21
4.7979855695
 31
0.0
  0
ARC
  5
454
330
1F
100
AcDbEntity
  8
0
  6
CONTINUOUS
 62
     7
100
AcDbCircle
 10
7.3654135387
 20
5.1921043152
 30
0.0
 40
0.0198007589958129
100
AcDbArc
 50
294.3746582936
 51
354.3052007488
  0
LINE
  5
455
330
1F
100
AcDbEntity
  8
0
  6
CONTINUOUS
 62
     7
100
AcDbLine
 10
6.9439495016
 20
4.798515264
 30
0.0
 11
6.9448670589
 21
4.7979855695
 31
0.0
  0
ARC
  5
456
330
1F
100
AcDbEntity
  8
0
  6
CONTINUOUS
 62
     7
100
AcDbCircle
 10
6.9278956271
 20
4.682717064
 30
0.0
 40
0.0171932754893107
100
AcDbArc
 50
230.7967147643
 51
9.2140369905
  0
LINE
  5
457
330
1F
100
AcDbEntity
  8
0
  6
CONTINUOUS
 62
     7
100
AcDbLine
 10
6.9170282092
 20
4.669393853
 30
0.0
 11
6.626796222
 21
4.8369412129
 31
0.0
  0
LINE
  5
458
330
1F
100
AcDbEntity
  8
0
  6
CONTINUOUS
 62
     7
100
AcDbLine
 10
7.3394485882
 20
5.8500328656
 30
0.0
 11
7.3475774629
 21
5.8630154856
 31
0.0
  0
LINE
  5
459
330
1F
100
AcDbEntity
  8
0
  6
CONTINUOUS
 62
     7
100
AcDbLine
 10
7.3475774629
 20
5.8630154856
 30
0.0
 11
7.3532612999
 21
5.8588646646
 31
0.0
  0
LINE
  5
45A
330
1F
100
AcDbEntity
  8
0
  6
CONTINUOUS
 62
     7
100
AcDbLine
 10
7.3532612999
 20
5.8588646646
 30
0.0
 11
7.3528619935
 21
5.8582161075
 31
0.0
  0
LINE
  5
45B
330
1F
100
AcDbEntity
  8
0
  6
CONTINUOUS
 62
     7
100
AcDbLine
 10
7.3472524682
 20
5.862122727
 30
0.0
 11
7.3528619935
 21
5.8582161075
 31
0.0
  0
LINE
  5
45C
330
1F
100
AcDbEntity
  8
0
  6
CONTINUOUS
 62
     7
100
AcDbLine
 10
7.3472524682
 20
5.862122727
 30
0.0
 11
7.3397144388
 21
5.8498793933
 31
0.0
  0
LINE
  5
45D
330
1F
100
AcDbEntity
  8
0
  6
CONTINUOUS
 62
     7
100
AcDbLine
 10
7.3475774629
 20
5.8630154856
 30
0.0
 11
7.2640609139
 21
5.9112285631
 31
0.0
  0
LINE
  5
45E
330
1F
100
AcDbEntity
  8
0
  6
CONTINUOUS
 62
     7
100
AcDbLine
 10
7.2559320392
 20
5.8982459431
 30
0.0
 11
7.2640609139
 21
5.9112285631
 31
0.0
  0
ARC
  5
45F
330
1F
100
AcDbEntity
  8
0
  6
CONTINUOUS
 62
     7
100
AcDbCircle
 10
7.326880916
 20
5.8575554349
 30
0.0
 40
0.0208772674579861
100
AcDbArc
 50
329.3671052089
 51
12.6367216734
  0
ARC
  5
460
330
1F
100
AcDbEntity
  8
0
  6
CONTINUOUS
 62
     7
100
AcDbCircle
 10
7.3325732116
 20
5.8536516632
 30
0.0
 40
0.0207958847835231
100
AcDbArc
 50
330.8385021346
 51
12.6789546201
  0
ARC
  5
461
330
1F
100
AcDbEntity
  8
0
  6
CONTINUOUS
 62
     7
100
AcDbCircle
 10
7.2691362654
 20
5.8890563966
 30
0.0
 40
0.0219539732524346
100
AcDbArc
 50
104.2400464452
 51
146.4588604309
  0
LWPOLYLINE
  5
462
330
1F
100
AcDbEntity
  8
0
  6
CONTINUOUS
 62
     7
100
AcDbPolyline
 90
        3
 70
   128
 43
0.0
 10
7.337394839
 20
5.1524185466
 10
7.3398429262
 20
5.1541405976
 10
7.34096198
 20
5.1552354045
  0
LINE
  5
463
330
1F
100
AcDbEntity
  8
0
  6
CONTINUOUS
 62
     7
100
AcDbLine
 10
7.3735853435
 20
5.1740684714
 30
0.0
 11
7.3735853435
 21
5.1258449451
 31
0.0
  0
LINE
  5
464
330
1F
100
AcDbEntity
  8
0
  6
CONTINUOUS
 62
     7
100
AcDbLine
 10
7.3431604535
 20
5.10828103
 30
0.0
 11
7.3735853435
 21
5.1258449451
 31
0.0
  0
ARC
  5
465
330
1F
100
AcDbEntity
  8
0
  6
CONTINUOUS
 62
     7
100
AcDbCircle
 10
7.3333089366
 20
5.0999059389
 30
0.0
 40
0.0099003794979169
100
AcDbArc
 50
294.3746582936
 51
354.3052007488
  0
LINE
  5
466
330
1F
100
AcDbEntity
  8
0
  6
CONTINUOUS
 62
     7
100
AcDbLine
 10
7.3837750697
 20
5.1317273488
 30
0.0
 11
7.3735853435
 21
5.1258449451
 31
0.0
  0
ARC
  5
467
330
1F
100
AcDbEntity
  8
0
  6
CONTINUOUS
 62
     7
100
AcDbCircle
 10
7.3674552788
 20
5.1259607057
 30
0.0
 40
0.0173086610473632
100
AcDbArc
 50
290.7420751989
 51
19.4610019121
  0
ARC
  5
468
330
1F
100
AcDbEntity
  8
0
  6
CONTINUOUS
 62
     7
100
AcDbCircle
 10
7.3623763709
 20
5.1204996673
 30
0.0
 40
0.0241577599264531
100
AcDbArc
 50
27.6511209587
 51
62.3550874947
  0
LINE
  5
469
330
1F
100
AcDbEntity
  8
0
  6
PHANTOM
 62
     8
100
AcDbLine
 10
6.4379316679
 20
4.8878340402
 30
0.0
 11
6.025983067
 21
4.3817545321
 31
0.0
  0
ARC
  5
46A
330
1F
100
AcDbEntity
  8
0
  6
PHANTOM
 62
     8
100
AcDbCircle
 10
5.799815603
 20
4.206047615
 30
0.0
 40
0.2863994456576906
100
AcDbArc
 50
37.8432254495
 51
60.0137455682
  0
LINE
  5
46B
330
1F
100
AcDbEntity
  8
0
  6
PHANTOM
 62
     8
100
AcDbLine
 10
5.9429558182
 20
4.4541111578
 30
0.0
 11
6.4741066538
 21
5.1066307999
 31
0.0
  0
LINE
  5
46C
330
1F
100
AcDbEntity
  8
0
  6
PHANTOM
 62
     8
100
AcDbLine
 10
5.8872781189
 20
4.4862532094
 30
0.0
 11
5.9429558182
 21
4.4541111578
 31
0.0
  0
LINE
  5
46D
330
1F
100
AcDbEntity
  8
0
  6
PHANTOM
 62
     8
100
AcDbLine
 10
6.4342048563
 20
5.158153572
 30
0.0
 11
5.8872781189
 21
4.4862532094
 31
0.0
  0
ARC
  5
46E
330
1F
100
AcDbEntity
  8
0
  6
PHANTOM
 62
     8
100
AcDbCircle
 10
6.0418666559
 20
4.3330773436
 30
0.0
 40
0.0187852822442628
100
AcDbArc
 50
6.1622355211
 51
56.675077726
  0
LINE
  5
46F
330
1F
100
AcDbEntity
  8
0
  6
PHANTOM
 62
     8
100
AcDbLine
 10
6.052187033
 20
4.3487737331
 30
0.0
 11
6.4379316679
 21
4.8878340402
 31
0.0
  0
LWPOLYLINE
  5
470
330
1F
100
AcDbEntity
  8
0
  6
PHANTOM
 62
     8
100
AcDbPolyline
 90
        7
 70
   128
 43
0.0
 10
5.8535611777
 20
4.4957467445
 10
5.8559185377
 20
4.4972024961
 10
5.8597748875
 20
4.4974655332
 10
5.8649818948
 20
4.4964622693
 10
5.8714113458
 20
4.4942174083
 10
5.8789049261
 20
4.490786226
 10
5.8872781189
 20
4.4862532094
  0
LINE
  5
471
330
1F
100
AcDbEntity
  8
0
  6
PHANTOM
 62
     8
100
AcDbLine
 10
6.025983067
 20
4.3817545321
 30
0.0
 11
6.052187033
 21
4.3487737331
 31
0.0
  0
ARC
  5
472
330
1F
100
AcDbEntity
  8
0
  6
PHANTOM
 62
     8
100
AcDbCircle
 10
6.0045599009
 20
4.3893723912
 30
0.0
 40
0.0893653786895349
100
AcDbArc
 50
133.5787298426
 51
204.3986501792
  0
ARC
  5
473
330
1F
100
AcDbEntity
  8
0
  6
PHANTOM
 62
     8
100
AcDbCircle
 10
5.9570206536
 20
4.428720639
 30
0.0
 40
0.0834363809393172
100
AcDbArc
 50
246.0687015493
 51
325.7436023978
  0
LINE
  5
474
330
1F
100
AcDbEntity
  8
0
  6
PHANTOM
 62
     8
100
AcDbLine
 10
6.9170282092
 20
5.5855912207
 30
0.0
 11
7.3457464939
 21
5.8330850184
 31
0.0
  0
ARC
  5
475
330
1F
100
AcDbEntity
  8
0
  6
PHANTOM
 62
     8
100
AcDbCircle
 10
7.3131437647
 20
5.7821162893
 30
0.0
 40
0.0605041262823616
100
AcDbArc
 50
2.6054784857
 51
57.39452166
  0
LINE
  5
476
330
1F
100
AcDbEntity
  8
0
  6
PHANTOM
 62
     8
100
AcDbLine
 10
7.3735853435
 20
5.7848667165
 30
0.0
 11
6.9448670589
 21
5.5373729188
 31
0.0
  0
LINE
  5
477
330
1F
100
AcDbEntity
  8
0
  6
PHANTOM
 62
     8
100
AcDbLine
 10
5.9231754409
 20
4.3524570747
 30
0.0
 11
5.8674977416
 21
4.3845991263
 31
0.0
  0
ARC
  5
478
330
1F
100
AcDbEntity
  8
0
  6
PHANTOM
 62
     8
100
AcDbCircle
 10
5.9488822016
 20
4.4215144428
 30
0.0
 40
0.0893653786895253
100
AcDbArc
 50
133.5787298426
 51
204.3986501792
  0
LINE
  5
479
330
1F
100
AcDbEntity
  8
0
  6
PHANTOM
 62
     8
100
AcDbLine
 10
5.949379407
 20
4.3194762757
 30
0.0
 11
5.9231754409
 21
4.3524570747
 31
0.0
  0
ARC
  5
47A
330
1F
100
AcDbEntity
  8
0
  6
PHANTOM
 62
     8
100
AcDbCircle
 10
5.9832246196
 20
4.39573984
 30
0.0
 40
0.0834363809393137
100
AcDbArc
 50
246.0687015493
 51
325.7436023978
  0
LINE
  5
47B
330
1F
100
AcDbEntity
  8
0
  6
PHANTOM
 62
     8
100
AcDbLine
 10
7.3735853435
 20
5.6080566982
 30
0.0
 11
7.3735853435
 21
5.7848667165
 31
0.0
  0
LINE
  5
47C
330
1F
100
AcDbEntity
  8
0
  6
PHANTOM
 62
     8
100
AcDbLine
 10
6.9560025987
 20
6.0580793799
 30
0.0
 11
6.5272843141
 21
5.8105855822
 31
0.0
  0
LINE
  5
47D
330
1F
100
AcDbEntity
  8
0
  6
PHANTOM
 62
     8
100
AcDbLine
 10
7.3457464939
 20
5.8330850184
 30
0.0
 11
6.9560025987
 21
6.0580793799
 31
0.0
  0
LINE
  5
47E
330
1F
100
AcDbEntity
  8
0
  6
PHANTOM
 62
     8
100
AcDbLine
 10
6.5148967801
 20
4.9641038603
 30
0.0
 11
6.5116778931
 21
4.9655334517
 31
0.0
  0
ARC
  5
47F
330
1F
100
AcDbEntity
  8
0
  6
PHANTOM
 62
     8
100
AcDbCircle
 10
6.5525182559
 20
5.1802898252
 30
0.0
 40
0.1738731607929659
100
AcDbArc
 50
173.9972513891
 51
191.6407709292
  0
LWPOLYLINE
  5
480
330
1F
100
AcDbEntity
  8
0
  6
PHANTOM
 62
     8
100
AcDbPolyline
 90
        3
 70
   128
 43
0.0
 10
5.8529775351
 20
4.3970562563
 10
5.8593680781
 20
4.3903836733
 10
5.8674977416
 20
4.3845991263
  0
LWPOLYLINE
  5
481
330
1F
100
AcDbEntity
  8
0
  6
PHANTOM
 62
     8
100
AcDbPolyline
 90
        3
 70
   128
 43
0.0
 10
5.949379407
 20
4.3194762757
 10
5.954262355
 20
4.3146488632
 10
5.9571424545
 20
4.312722961
  0
LINE
  5
482
330
1F
100
AcDbEntity
  8
0
  6
PHANTOM
 62
     8
100
AcDbLine
 10
5.8937017077
 20
4.3516183273
 30
0.0
 11
5.949379407
 21
4.3194762757
 31
0.0
  0
LINE
  5
483
330
1F
100
AcDbEntity
  8
0
  6
PHANTOM
 62
     8
100
AcDbLine
 10
5.8674977416
 20
4.3845991263
 30
0.0
 11
5.8937017077
 21
4.3516183273
 31
0.0
  0
LINE
  5
484
330
1F
100
AcDbEntity
  8
0
  6
PHANTOM
 62
     8
100
AcDbLine
 10
6.9170282092
 20
4.7979855695
 30
0.0
 11
6.9170282092
 21
5.0366451033
 31
0.0
  0
LINE
  5
485
330
1F
100
AcDbEntity
  8
0
  6
PHANTOM
 62
     8
100
AcDbLine
 10
6.9170282092
 20
5.0391791948
 30
0.0
 11
6.9170282092
 21
5.4248574526
 31
0.0
  0
LINE
  5
486
330
1F
100
AcDbEntity
  8
0
  6
PHANTOM
 62
     8
100
AcDbLine
 10
6.9448670589
 20
5.4236018019
 30
0.0
 11
6.9448670589
 21
4.7999517605
 31
0.0
  0
LINE
  5
487
330
1F
100
AcDbEntity
  8
0
  6
PHANTOM
 62
     8
100
AcDbLine
 10
6.4994454644
 20
5.66592284
 30
0.0
 11
6.4994454644
 21
5.4739409499
 31
0.0
  0
LINE
  5
488
330
1F
100
AcDbEntity
  8
0
  6
PHANTOM
 62
     8
100
AcDbLine
 10
7.3373994743
 20
5.52502144
 30
0.0
 11
7.3373994743
 21
5.5859642936
 31
0.0
  0
LINE
  5
489
330
1F
100
AcDbEntity
  8
0
  6
PHANTOM
 62
     8
100
AcDbLine
 10
7.337394839
 20
5.090888017
 30
0.0
 11
7.337394839
 21
5.1524185466
 31
0.0
  0
LWPOLYLINE
  5
48A
330
1F
100
AcDbEntity
  8
0
  6
PHANTOM
 62
     8
100
AcDbPolyline
 90
        3
 70
   128
 43
0.0
 10
5.8791815011
 20
4.3640754573
 10
5.8855720442
 20
4.3574028743
 10
5.8937017077
 20
4.3516183273
  0
LWPOLYLINE
  5
48B
330
1F
100
AcDbEntity
  8
0
  6
PHANTOM
 62
     8
100
AcDbPolyline
 90
        3
 70
   128
 43
0.0
 10
5.8937017077
 20
4.3516183273
 10
5.8985846557
 20
4.3467909149
 10
5.9014647552
 20
4.3448650126
  0
ARC
  5
48C
330
1F
100
AcDbEntity
  8
0
  6
PHANTOM
 62
     8
100
AcDbCircle
 10
6.9444703131
 20
6.0419816898
 30
0.0
 40
0.0198022533819551
100
AcDbArc
 50
54.3824225248
 51
114.3071190461
  0
ARC
  5
48D
330
1F
100
AcDbEntity
  8
0
  6
PHANTOM
 62
     8
100
AcDbCircle
 10
7.3572787795
 20
5.8169873283
 30
0.0
 40
0.0198022533819595
100
AcDbArc
 50
65.6928809539
 51
125.6175774752
  0
ARC
  5
48E
330
1F
100
AcDbEntity
  8
0
  6
PHANTOM
 62
     8
100
AcDbCircle
 10
7.3654135387
 20
5.8029025603
 30
0.0
 40
0.0198007589958168
100
AcDbArc
 50
294.3746582936
 51
354.3052007488
  0
ARC
  5
48F
330
1F
100
AcDbEntity
  8
0
  6
PHANTOM
 62
     8
100
AcDbCircle
 10
6.9675348844
 20
6.0419816898
 30
0.0
 40
0.0198022533819595
100
AcDbArc
 50
65.6928809539
 51
125.6175774752
  0
LINE
  5
490
330
1F
100
AcDbEntity
  8
0
  6
PHANTOM
 62
     8
100
AcDbLine
 10
7.3735853435
 20
5.1740684714
 30
0.0
 11
7.3735853435
 21
5.5437621461
 31
0.0
  0
LINE
  5
491
330
1F
100
AcDbEntity
  8
0
  6
PHANTOM
 62
     8
100
AcDbLine
 10
7.3735853435
 20
4.932963901
 30
0.0
 11
7.3735853435
 21
5.1097739193
 31
0.0
  0
LINE
  5
492
330
1F
100
AcDbEntity
  8
0
  6
PHANTOM
 62
     8
100
AcDbLine
 10
6.9448670589
 20
4.6854701033
 30
0.0
 11
7.3735853435
 21
4.932963901
 31
0.0
  0
ARC
  5
493
330
1F
100
AcDbEntity
  8
0
  6
PHANTOM
 62
     8
100
AcDbCircle
 10
7.3542939301
 20
4.9308345018
 30
0.0
 40
0.0194085799201656
100
AcDbArc
 50
305.0133328729
 51
6.2988475205
  0
ARC
  5
494
330
1F
100
AcDbEntity
  8
0
  6
PHANTOM
 62
     8
100
AcDbCircle
 10
7.3654135387
 20
4.9509997448
 30
0.0
 40
0.0198007589958168
100
AcDbArc
 50
294.3746582936
 51
354.3052007488
  0
ENDSEC
  0
SECTION
  2
OBJECTS
  0
DICTIONARY
  5
C
330
0
100
AcDbDictionary
  3
ACAD_GROUP
350
D
  3
ACAD_MLINESTYLE
350
17
  0
DICTIONARY
  5
D
102
{ACAD_REACTORS
330
C
102
}
330
C
100
AcDbDictionary
  0
DICTIONARY
  5
17
102
{ACAD_REACTORS
330
C
102
}
330
C
100
AcDbDictionary
  3
STANDARD
350
18
  0
MLINESTYLE
  5
18
102
{ACAD_REACTORS
330
17
102
}
330
17
100
AcDbMlineStyle
  2
Standard
 70
     0
  3

 62
   256
 51
90.0
 52
90.0
 71
     2
 49
0.5
 62
   256
  6
BYLAYER
 49
-0.5
 62
   256
  6
BYLAYER
  0
ENDSEC
  0
EOF
