  0
SECTION
  2
HEADER
  9
$ACADVER
  1
AC1014
  9
$ACADMAINTVER
 70
     9
  9
$DWGCODEPAGE
  3
ANSI_1252
  9
$INSBASE
 10
0.0
 20
0.0
 30
0.0
  9
$EXTMIN
 10
-0.053549816043887
 20
-11.96302881125059
 30
-7.039794360976884
  9
$EXTMAX
 10
24.60368294883369
 20
11.68504996937749
 30
7.299794360976135
  9
$LIMMIN
 10
0.0
 20
0.0
  9
$LIMMAX
 10
420.0
 20
297.0
  9
$ORTHOMODE
 70
     0
  9
$REGENMODE
 70
     1
  9
$FILLMODE
 70
     1
  9
$QTEXTMODE
 70
     0
  9
$MIRRTEXT
 70
     0
  9
$DRAGMODE
 70
     2
  9
$LTSCALE
 40
1.0
  9
$OSMODE
 70
   135
  9
$ATTMODE
 70
     1
  9
$TEXTSIZE
 40
2.5
  9
$TRACEWID
 40
1.0
  9
$TEXTSTYLE
  7
STANDARD
  9
$CLAYER
  8
COTAS
  9
$CELTYPE
  6
BYLAYER
  9
$CECOLOR
 62
   256
  9
$CELTSCALE
 40
1.0
  9
$DELOBJ
 70
     1
  9
$DISPSILH
 70
     0
  9
$DIMSCALE
 40
1.0
  9
$DIMASZ
 40
2.5
  9
$DIMEXO
 40
0.625
  9
$DIMDLI
 40
3.75
  9
$DIMRND
 40
0.0
  9
$DIMDLE
 40
0.0
  9
$DIMEXE
 40
1.25
  9
$DIMTP
 40
0.0
  9
$DIMTM
 40
0.0
  9
$DIMTXT
 40
2.5
  9
$DIMCEN
 40
2.5
  9
$DIMTSZ
 40
0.0
  9
$DIMTOL
 70
     0
  9
$DIMLIM
 70
     0
  9
$DIMTIH
 70
     0
  9
$DIMTOH
 70
     0
  9
$DIMSE1
 70
     0
  9
$DIMSE2
 70
     0
  9
$DIMTAD
 70
     1
  9
$DIMZIN
 70
     8
  9
$DIMBLK
  1

  9
$DIMASO
 70
     1
  9
$DIMSHO
 70
     1
  9
$DIMPOST
  1

  9
$DIMAPOST
  1

  9
$DIMALT
 70
     0
  9
$DIMALTD
 70
     3
  9
$DIMALTF
 40
0.03937007874016
  9
$DIMLFAC
 40
1.0
  9
$DIMTOFL
 70
     1
  9
$DIMTVP
 40
0.0
  9
$DIMTIX
 70
     0
  9
$DIMSOXD
 70
     0
  9
$DIMSAH
 70
     0
  9
$DIMBLK1
  1

  9
$DIMBLK2
  1

  9
$DIMSTYLE
  2
ISO-25
  9
$DIMCLRD
 70
     0
  9
$DIMCLRE
 70
     0
  9
$DIMCLRT
 70
     0
  9
$DIMTFAC
 40
1.0
  9
$DIMGAP
 40
0.625
  9
$DIMJUST
 70
     0
  9
$DIMSD1
 70
     0
  9
$DIMSD2
 70
     0
  9
$DIMTOLJ
 70
     0
  9
$DIMTZIN
 70
     8
  9
$DIMALTZ
 70
     0
  9
$DIMALTTZ
 70
     0
  9
$DIMFIT
 70
     3
  9
$DIMUPT
 70
     0
  9
$DIMUNIT
 70
     2
  9
$DIMDEC
 70
     2
  9
$DIMTDEC
 70
     2
  9
$DIMALTU
 70
     2
  9
$DIMALTTD
 70
     3
  9
$DIMTXSTY
  7
STANDARD
  9
$DIMAUNIT
 70
     0
  9
$LUNITS
 70
     2
  9
$LUPREC
 70
     4
  9
$SKETCHINC
 40
1.0
  9
$FILLETRAD
 40
0.0
  9
$AUNITS
 70
     0
  9
$AUPREC
 70
     0
  9
$MENU
  1
.
  9
$ELEVATION
 40
0.0
  9
$PELEVATION
 40
0.0
  9
$THICKNESS
 40
0.0
  9
$LIMCHECK
 70
     0
  9
$CHAMFERA
 40
0.0
  9
$CHAMFERB
 40
0.0
  9
$CHAMFERC
 40
0.0
  9
$CHAMFERD
 40
0.0
  9
$SKPOLY
 70
     0
  9
$TDCREATE
 40
2458087.945648148
  9
$TDUPDATE
 40
2458089.843364607
  9
$TDINDWG
 40
0.0297383796
  9
$TDUSRTIMER
 40
0.0005220255
  9
$USRTIMER
 70
     1
  9
$ANGBASE
 50
0.0
  9
$ANGDIR
 70
     0
  9
$PDMODE
 70
     0
  9
$PDSIZE
 40
0.0
  9
$PLINEWID
 40
0.0
  9
$COORDS
 70
     1
  9
$SPLFRAME
 70
     0
  9
$SPLINETYPE
 70
     6
  9
$SPLINESEGS
 70
     8
  9
$ATTDIA
 70
     0
  9
$ATTREQ
 70
     1
  9
$HANDLING
 70
     1
  9
$HANDSEED
  5
E21
  9
$SURFTAB1
 70
     6
  9
$SURFTAB2
 70
     6
  9
$SURFTYPE
 70
     6
  9
$SURFU
 70
     6
  9
$SURFV
 70
     6
  9
$UCSNAME
  2

  9
$UCSORG
 10
0.0
 20
0.0
 30
0.0
  9
$UCSXDIR
 10
1.0
 20
0.0
 30
0.0
  9
$UCSYDIR
 10
0.0
 20
1.0
 30
0.0
  9
$PUCSNAME
  2

  9
$PUCSORG
 10
0.0
 20
0.0
 30
0.0
  9
$PUCSXDIR
 10
1.0
 20
0.0
 30
0.0
  9
$PUCSYDIR
 10
0.0
 20
1.0
 30
0.0
  9
$USERI1
 70
     0
  9
$USERI2
 70
     0
  9
$USERI3
 70
     0
  9
$USERI4
 70
     0
  9
$USERI5
 70
     0
  9
$USERR1
 40
0.0
  9
$USERR2
 40
0.0
  9
$USERR3
 40
0.0
  9
$USERR4
 40
0.0
  9
$USERR5
 40
0.0
  9
$WORLDVIEW
 70
     1
  9
$SHADEDGE
 70
     3
  9
$SHADEDIF
 70
    70
  9
$TILEMODE
 70
     1
  9
$MAXACTVP
 70
    64
  9
$PINSBASE
 10
0.0
 20
0.0
 30
0.0
  9
$PLIMCHECK
 70
     0
  9
$PEXTMIN
 10
0.0
 20
0.0
 30
0.0
  9
$PEXTMAX
 10
0.0
 20
0.0
 30
0.0
  9
$PLIMMIN
 10
0.0
 20
0.0
  9
$PLIMMAX
 10
0.0
 20
0.0
  9
$UNITMODE
 70
     0
  9
$VISRETAIN
 70
     1
  9
$PLINEGEN
 70
     0
  9
$PSLTSCALE
 70
     1
  9
$TREEDEPTH
 70
  3020
  9
$PICKSTYLE
 70
     1
  9
$CMLSTYLE
  2
STANDARD
  9
$CMLJUST
 70
     0
  9
$CMLSCALE
 40
20.0
  9
$PROXYGRAPHICS
 70
     1
  9
$MEASUREMENT
 70
     1
  0
ENDSEC
  0
SECTION
  2
CLASSES
  0
CLASS
  1
ACDBDICTIONARYWDFLT
  2
AcDbDictionaryWithDefault
  3
ObjectDBX Classes
 90
        0
280
     0
281
     0
  0
CLASS
  1
DICTIONARYVAR
  2
AcDbDictionaryVar
  3
ObjectDBX Classes
 90
        0
280
     0
281
     0
  0
CLASS
  1
TABLESTYLE
  2
AcDbTableStyle
  3
ObjectDBX Classes
 90
     4095
280
     0
281
     0
  0
CLASS
  1
MATERIAL
  2
AcDbMaterial
  3
ObjectDBX Classes
 90
     1153
280
     0
281
     0
  0
CLASS
  1
VISUALSTYLE
  2
AcDbVisualStyle
  3
ObjectDBX Classes
 90
     4095
280
     0
281
     0
  0
CLASS
  1
SCALE
  2
AcDbScale
  3
ObjectDBX Classes
 90
     1153
280
     0
281
     0
  0
CLASS
  1
MLEADERSTYLE
  2
AcDbMLeaderStyle
  3
ACDB_MLEADERSTYLE_CLASS
 90
     4095
280
     0
281
     0
  0
CLASS
  1
CELLSTYLEMAP
  2
AcDbCellStyleMap
  3
ObjectDBX Classes
 90
     1152
280
     0
281
     0
  0
CLASS
  1
EXACXREFPANELOBJECT
  2
ExAcXREFPanelObject
  3
EXAC_ESW
 90
     1025
280
     1
281
     0
  0
CLASS
  1
NPOCOLLECTION
  2
AcDbImpNonPersistentObjectsCollection
  3
ObjectDBX Classes
 90
     1153
280
     1
281
     0
  0
CLASS
  1
LAYER_INDEX
  2
AcDbLayerIndex
  3
ObjectDBX Classes
 90
        0
280
     0
281
     0
  0
CLASS
  1
SPATIAL_INDEX
  2
AcDbSpatialIndex
  3
AutoCAD 2000
 90
        0
280
     0
281
     0
  0
CLASS
  1
IDBUFFER
  2
AcDbIdBuffer
  3
ObjectDBX Classes
 90
        0
280
     0
281
     0
  0
CLASS
  1
ACDBSECTIONVIEWSTYLE
  2
AcDbSectionViewStyle
  3
ObjectDBX Classes
 90
     1025
280
     0
281
     0
  0
CLASS
  1
ACDBDETAILVIEWSTYLE
  2
AcDbDetailViewStyle
  3
ObjectDBX Classes
 90
     1025
280
     0
281
     0
  0
CLASS
  1
RAPIDRTRENDERSETTINGS
  2
AcDbRapidRTRenderSettings
  3
ObjectDBX Classes
 90
     1024
280
     0
281
     0
  0
CLASS
  1
SORTENTSTABLE
  2
AcDbSortentsTable
  3
ObjectDBX Classes
 90
        0
280
     0
281
     0
  0
CLASS
  1
MENTALRAYRENDERSETTINGS
  2
AcDbMentalRayRenderSettings
  3
SCENEOE
 90
     1024
280
     0
281
     0
  0
CLASS
  1
SOLID_BACKGROUND
  2
AcDbSolidBackground
  3
SCENEOE
 90
     4095
280
     0
281
     0
  0
CLASS
  1
SWEPTSURFACE
  2
AcDbSweptSurface
  3
ObjectDBX Classes
 90
     4093
280
     0
281
     1
  0
CLASS
  1
ACDBASSOCPERSSUBENTMANAGER
  2
AcDbAssocPersSubentManager
  3
ObjectDBX Classes
 90
     1024
280
     1
281
     0
  0
CLASS
  1
ACDBASSOCNETWORK
  2
AcDbAssocNetwork
  3
ObjectDBX Classes
 90
     1025
280
     1
281
     0
  0
CLASS
  1
ACDBASSOCACTION
  2
AcDbAssocAction
  3
ObjectDBX Classes
 90
     1025
280
     1
281
     0
  0
CLASS
  1
ACDBASSOCSWEPTSURFACEACTIONBODY
  2
AcDbAssocSweptSurfaceActionBody
  3
ObjectDBX Classes
 90
     1025
280
     1
281
     0
  0
CLASS
  1
ACDBASSOCDEPENDENCY
  2
AcDbAssocDependency
  3
ObjectDBX Classes
 90
     1025
280
     1
281
     0
  0
CLASS
  1
ACDBASSOCPATHACTIONPARAM
  2
AcDbAssocPathActionParam
  3
ObjectDBX Classes
 90
     1025
280
     1
281
     0
  0
CLASS
  1
ACDBASSOCEDGEACTIONPARAM
  2
AcDbAssocEdgeActionParam
  3
ObjectDBX Classes
 90
     1025
280
     1
281
     0
  0
CLASS
  1
ACDBPLACEHOLDER
  2
AcDbPlaceHolder
  3
ObjectDBX Classes
 90
        0
280
     0
281
     0
  0
CLASS
  1
LAYOUT
  2
AcDbLayout
  3
ObjectDBX Classes
 90
        0
280
     0
281
     0
  0
CLASS
  1
ACAD_PROXY_OBJECT_WRAPPER
  2
AcDbProxyObjectWrapper
  3
AutoCAD 2000
 90
        0
280
     0
281
     0
  0
CLASS
  1
XRECORD
  2
AcDbXrecord
  3
ObjectDBX Classes
 90
        0
280
     0
281
     0
  0
CLASS
  1
LWPOLYLINE
  2
AcDbPolyline
  3
ObjectDBX Classes
 90
        0
280
     0
281
     1
  0
CLASS
  1
HATCH
  2
AcDbHatch
  3
ObjectDBX Classes
 90
        0
280
     0
281
     1
  0
ENDSEC
  0
SECTION
  2
TABLES
  0
TABLE
  2
VPORT
  5
8
330
0
100
AcDbSymbolTable
 70
     1
  0
VPORT
  5
EA
330
8
100
AcDbSymbolTableRecord
100
AcDbViewportTableRecord
  2
*ACTIVE
 70
     0
 10
0.0
 20
0.0
 11
1.0
 21
1.0
 12
10828.335262179
 22
1366.45930902631
 13
0.0
 23
0.0
 14
10.0
 24
10.0
 15
10.0
 25
10.0
 16
-0.4733403339359938
 26
-0.6409321593473578
 36
0.6042804774133401
 17
-4483.113329818879
 27
12138.12102775284
 37
-7094.015677508178
 40
19.60292203311765
 41
2.4752
 42
50.0
 43
0.0
 44
0.0
 50
0.0
 51
359.9999999999676
 71
    16
 72
  1000
 73
     1
 74
     3
 75
     0
 76
     0
 77
     0
 78
     0
1001
ACAD_NAV_VCDISPLAY
1070
     3
  0
ENDTAB
  0
TABLE
  2
LTYPE
  5
5
330
0
100
AcDbSymbolTable
 70
     4
  0
LTYPE
  5
14
330
5
100
AcDbSymbolTableRecord
100
AcDbLinetypeTableRecord
  2
BYBLOCK
 70
     0
  3

 72
    65
 73
     0
 40
0.0
  0
LTYPE
  5
15
330
5
100
AcDbSymbolTableRecord
100
AcDbLinetypeTableRecord
  2
BYLAYER
 70
     0
  3

 72
    65
 73
     0
 40
0.0
  0
LTYPE
  5
16
330
5
100
AcDbSymbolTableRecord
100
AcDbLinetypeTableRecord
  2
CONTINUOUS
 70
     0
  3
Solid line
 72
    65
 73
     0
 40
0.0
  0
ENDTAB
  0
TABLE
  2
LAYER
  5
2
102
{ACAD_XDICTIONARY
360
1FF
102
}
330
0
100
AcDbSymbolTable
 70
     7
  0
LAYER
  5
10
330
2
100
AcDbSymbolTableRecord
100
AcDbLayerTableRecord
  2
0
 70
     0
 62
     7
  6
CONTINUOUS
  0
LAYER
  5
2B1
330
2
100
AcDbSymbolTableRecord
100
AcDbLayerTableRecord
  2
COTAS
 70
     0
 62
    10
  6
CONTINUOUS
1001
ACAECLAYERSTANDARD
1000

1000

  0
ENDTAB
  0
TABLE
  2
STYLE
  5
3
330
0
100
AcDbSymbolTable
 70
     4
  0
STYLE
  5
11
330
3
100
AcDbSymbolTableRecord
100
AcDbTextStyleTableRecord
  2
STANDARD
 70
     0
 40
0.0
 41
1.0
 50
0.0
 71
     0
 42
2.5
  3
arial.ttf
  4

1001
ACAD
1000
Arial
1071
       34
  0
ENDTAB
  0
TABLE
  2
VIEW
  5
6
330
0
100
AcDbSymbolTable
 70
     0
  0
ENDTAB
  0
TABLE
  2
UCS
  5
7
330
0
100
AcDbSymbolTable
 70
     0
  0
ENDTAB
  0
TABLE
  2
APPID
  5
9
330
0
100
AcDbSymbolTable
 70
    16
  0
APPID
  5
12
330
9
100
AcDbSymbolTableRecord
100
AcDbRegAppTableRecord
  2
ACAD
 70
     0
  0
APPID
  5
9E
330
9
100
AcDbSymbolTableRecord
100
AcDbRegAppTableRecord
  2
ACAD_PSEXT
 70
     0
  0
APPID
  5
133
330
9
100
AcDbSymbolTableRecord
100
AcDbRegAppTableRecord
  2
ACADANNOPO
 70
     0
  0
APPID
  5
134
330
9
100
AcDbSymbolTableRecord
100
AcDbRegAppTableRecord
  2
ACADANNOTATIVE
 70
     0
  0
APPID
  5
135
330
9
100
AcDbSymbolTableRecord
100
AcDbRegAppTableRecord
  2
ACAD_DSTYLE_DIMJAG
 70
     0
  0
APPID
  5
136
330
9
100
AcDbSymbolTableRecord
100
AcDbRegAppTableRecord
  2
ACAD_DSTYLE_DIMTALN
 70
     0
  0
APPID
  5
165
330
9
100
AcDbSymbolTableRecord
100
AcDbRegAppTableRecord
  2
ACAD_MLEADERVER
 70
     0
  0
APPID
  5
217
330
9
100
AcDbSymbolTableRecord
100
AcDbRegAppTableRecord
  2
ACAD_NAV_VCDISPLAY
 70
     0
  0
APPID
  5
27F
330
9
100
AcDbSymbolTableRecord
100
AcDbRegAppTableRecord
  2
ACAD_DSTYLE_DIMJOGGED_JOGA
 70
     0
  0
APPID
  5
280
330
9
100
AcDbSymbolTableRecord
100
AcDbRegAppTableRecord
  2
ACAECLAYERSTANDARD
 70
     0
  0
APPID
  5
281
330
9
100
AcDbSymbolTableRecord
100
AcDbRegAppTableRecord
  2
ACAD_DSTYLE_DIMBREAK
 70
     0
  0
APPID
  5
29A
330
9
100
AcDbSymbolTableRecord
100
AcDbRegAppTableRecord
  2
ACAD_EXEMPT_FROM_CAD_STAND
 70
     0
  0
APPID
  5
8AB
330
9
100
AcDbSymbolTableRecord
100
AcDbRegAppTableRecord
  2
ACAD_STEPID
 70
     0
  0
APPID
  5
8B9
330
9
100
AcDbSymbolTableRecord
100
AcDbRegAppTableRecord
  2
ACAD_ASSOCPERSSUBENTMANAGE
 70
     0
  0
APPID
  5
AEA
330
9
100
AcDbSymbolTableRecord
100
AcDbRegAppTableRecord
  2
ACAD_DSTYLE_DIMARC_LENGTH_
 70
     0
  0
APPID
  5
AED
330
9
100
AcDbSymbolTableRecord
100
AcDbRegAppTableRecord
  2
ACAD_OBJECT_CHANGE_GUID
 70
     0
  0
ENDTAB
  0
TABLE
  2
DIMSTYLE
  5
A
330
0
100
AcDbSymbolTable
 70
     7
  0
DIMSTYLE
105
1B0
330
A
100
AcDbSymbolTableRecord
100
AcDbDimStyleTableRecord
  2
STANDARD
 70
     0
  3

  4

  5

  6

  7

 40
1.0
 41
0.18
 42
0.0625
 43
0.38
 44
0.18
 45
0.0
 46
0.0
 47
0.0
 48
0.0
140
0.18
141
0.09
142
0.0
143
25.4
144
1.0
145
0.0
146
1.0
147
0.09
 71
     0
 72
     0
 73
     1
 74
     1
 75
     0
 76
     0
 77
     0
 78
     0
170
     0
171
     2
172
     0
173
     0
174
     0
175
     0
176
     0
177
     0
178
     0
270
     2
271
     4
272
     4
273
     2
274
     2
340
11
275
     0
280
     0
281
     0
282
     0
283
     1
284
     0
285
     0
286
     0
287
     3
288
     0
  0
DIMSTYLE
105
27
330
A
100
AcDbSymbolTableRecord
100
AcDbDimStyleTableRecord
  2
ISO-25
 70
     0
  3

  4

  5

  6

  7

 40
1.0
 41
2.5
 42
0.625
 43
3.75
 44
1.25
 45
0.0
 46
0.0
 47
0.0
 48
0.0
140
2.5
141
2.5
142
0.0
143
0.03937007874016
144
1.0
145
0.0
146
1.0
147
0.625
 71
     0
 72
     0
 73
     0
 74
     0
 75
     0
 76
     0
 77
     1
 78
     8
170
     0
171
     3
172
     1
173
     0
174
     0
175
     0
176
     0
177
     0
178
     0
270
     2
271
     2
272
     2
273
     2
274
     3
340
11
275
     0
280
     0
281
     0
282
     0
283
     0
284
     8
285
     0
286
     0
287
     3
288
     0
  0
ENDTAB
  0
TABLE
  2
BLOCK_RECORD
  5
1
330
0
100
AcDbSymbolTable
 70
     3
  0
BLOCK_RECORD
  5
1F
102
{ACAD_XDICTIONARY
360
1CE
102
}
330
1
100
AcDbSymbolTableRecord
100
AcDbBlockTableRecord
  2
*MODEL_SPACE
  0
BLOCK_RECORD
  5
D2
330
1
100
AcDbSymbolTableRecord
100
AcDbBlockTableRecord
  2
*PAPER_SPACE
  0
BLOCK_RECORD
  5
D6
330
1
100
AcDbSymbolTableRecord
100
AcDbBlockTableRecord
  2
*PAPER_SPACE0
  0
ENDTAB
  0
ENDSEC
  0
SECTION
  2
BLOCKS
  0
BLOCK
  5
20
330
1F
100
AcDbEntity
  8
0
100
AcDbBlockBegin
  2
*MODEL_SPACE
 70
     0
 10
0.0
 20
0.0
 30
0.0
  3
*MODEL_SPACE
  1

  0
ENDBLK
  5
21
330
1F
100
AcDbEntity
  8
0
100
AcDbBlockEnd
  0
BLOCK
  5
D4
330
D2
100
AcDbEntity
 67
     1
  8
0
100
AcDbBlockBegin
  2
*PAPER_SPACE
 70
     0
 10
0.0
 20
0.0
 30
0.0
  3
*PAPER_SPACE
  1

  0
ENDBLK
  5
D5
330
D2
100
AcDbEntity
 67
     1
  8
0
100
AcDbBlockEnd
  0
BLOCK
  5
D8
330
D6
100
AcDbEntity
  8
0
100
AcDbBlockBegin
  2
*PAPER_SPACE0
 70
     0
 10
0.0
 20
0.0
 30
0.0
  3
*PAPER_SPACE0
  1

  0
ENDBLK
  5
D9
330
D6
100
AcDbEntity
  8
0
100
AcDbBlockEnd
  0
ENDSEC
  0
SECTION
  2
ENTITIES
  0
LINE
  5
C90
330
1F
100
AcDbEntity
  8
0
100
AcDbLine
 10
3.405066566393288
 20
-0.0089894209386327
 30
0.2599999999999989
 11
3.405066566393288
 21
-0.0089894209386327
 31
-0.0000000000000009
210
0.0
220
-1.0
230
6.123233995736766E-17
1001
ACAD_STEPID
1071
        3
  0
LINE
  5
C91
330
1F
100
AcDbEntity
  8
0
100
AcDbLine
 10
3.405066566393288
 20
-0.0089894209386327
 30
-0.0000000000000009
 11
4.405066566393288
 21
-0.0089894209386327
 31
-0.0000000000000009
210
0.0
220
-1.0
230
6.123233995736766E-17
1001
ACAD_STEPID
1071
        3
  0
LINE
  5
C92
330
1F
100
AcDbEntity
  8
0
100
AcDbLine
 10
4.405066566393288
 20
-0.0089894209386327
 30
0.259999999999998
 11
4.405066566393288
 21
-0.0089894209386327
 31
-0.0000000000000018
210
0.0
220
-1.0
230
6.123233995736766E-17
1001
ACAD_STEPID
1071
        3
  0
LINE
  5
C93
330
1F
100
AcDbEntity
  8
0
100
AcDbLine
 10
3.405066566393288
 20
-0.0089894209386327
 30
0.2599999999999989
 11
4.405066566393288
 21
-0.0089894209386327
 31
0.2599999999999989
210
0.0
220
-1.0
230
6.123233995736766E-17
1001
ACAD_STEPID
1071
        3
  0
LINE
  5
C94
330
1F
100
AcDbEntity
  8
0
100
AcDbLine
 10
5.405066566393289
 20
-0.0089894209386327
 30
0.259999999999998
 11
5.405066566393289
 21
-0.0089894209386327
 31
-0.0000000000000018
210
0.0
220
-1.0
230
6.123233995736766E-17
1001
ACAD_STEPID
1071
        4
  0
LINE
  5
C95
330
1F
100
AcDbEntity
  8
0
100
AcDbLine
 10
5.405066566393289
 20
-0.0089894209386327
 30
-0.0000000000000018
 11
6.405066566393289
 21
-0.0089894209386327
 31
-0.0000000000000018
210
0.0
220
-1.0
230
6.123233995736766E-17
1001
ACAD_STEPID
1071
        4
  0
LINE
  5
C96
330
1F
100
AcDbEntity
  8
0
100
AcDbLine
 10
6.405066566393289
 20
-0.0089894209386327
 30
0.259999999999998
 11
6.405066566393289
 21
-0.0089894209386327
 31
-0.0000000000000018
210
0.0
220
-1.0
230
6.123233995736766E-17
1001
ACAD_STEPID
1071
        4
  0
LINE
  5
C97
330
1F
100
AcDbEntity
  8
0
100
AcDbLine
 10
5.405066566393289
 20
-0.0089894209386327
 30
0.259999999999998
 11
6.405066566393289
 21
-0.0089894209386327
 31
0.259999999999998
210
0.0
220
-1.0
230
6.123233995736766E-17
1001
ACAD_STEPID
1071
        4
  0
LINE
  5
C98
330
1F
100
AcDbEntity
  8
0
100
AcDbLine
 10
7.405066566393289
 20
-0.0089894209386327
 30
0.259999999999998
 11
7.405066566393289
 21
-0.0089894209386327
 31
-0.0000000000000018
210
0.0
220
-1.0
230
6.123233995736766E-17
1001
ACAD_STEPID
1071
        5
  0
LINE
  5
C99
330
1F
100
AcDbEntity
  8
0
100
AcDbLine
 10
7.405066566393289
 20
-0.0089894209386327
 30
-0.0000000000000018
 11
8.405066566393284
 21
-0.0089894209386327
 31
-0.0000000000000018
210
0.0
220
-1.0
230
6.123233995736766E-17
1001
ACAD_STEPID
1071
        5
  0
LINE
  5
C9A
330
1F
100
AcDbEntity
  8
0
100
AcDbLine
 10
8.405066566393284
 20
-0.0089894209386327
 30
0.259999999999998
 11
8.405066566393284
 21
-0.0089894209386327
 31
-0.0000000000000018
210
0.0
220
-1.0
230
6.123233995736766E-17
1001
ACAD_STEPID
1071
        5
  0
LINE
  5
C9B
330
1F
100
AcDbEntity
  8
0
100
AcDbLine
 10
7.405066566393289
 20
-0.0089894209386327
 30
0.259999999999998
 11
8.405066566393284
 21
-0.0089894209386327
 31
0.259999999999998
210
0.0
220
-1.0
230
6.123233995736766E-17
1001
ACAD_STEPID
1071
        5
  0
LINE
  5
C9C
330
1F
100
AcDbEntity
  8
0
100
AcDbLine
 10
9.405066566393282
 20
-0.0089894209386327
 30
0.259999999999998
 11
9.405066566393282
 21
-0.0089894209386327
 31
-0.0000000000000018
210
0.0
220
-1.0
230
6.123233995736766E-17
1001
ACAD_STEPID
1071
        6
  0
LINE
  5
C9D
330
1F
100
AcDbEntity
  8
0
100
AcDbLine
 10
9.405066566393282
 20
-0.0089894209386327
 30
-0.0000000000000018
 11
10.40506656639328
 21
-0.0089894209386327
 31
-0.0000000000000018
210
0.0
220
-1.0
230
6.123233995736766E-17
1001
ACAD_STEPID
1071
        6
  0
LINE
  5
C9E
330
1F
100
AcDbEntity
  8
0
100
AcDbLine
 10
10.40506656639328
 20
-0.0089894209386327
 30
0.259999999999998
 11
10.40506656639328
 21
-0.0089894209386327
 31
-0.0000000000000018
210
0.0
220
-1.0
230
6.123233995736766E-17
1001
ACAD_STEPID
1071
        6
  0
LINE
  5
C9F
330
1F
100
AcDbEntity
  8
0
100
AcDbLine
 10
9.405066566393282
 20
-0.0089894209386327
 30
0.259999999999998
 11
10.40506656639328
 21
-0.0089894209386327
 31
0.259999999999998
210
0.0
220
-1.0
230
6.123233995736766E-17
1001
ACAD_STEPID
1071
        6
  0
LINE
  5
CA0
330
1F
100
AcDbEntity
  8
0
100
AcDbLine
 10
2.405066566393288
 20
-0.0089894209386327
 30
-0.0000000000000009
 11
2.405066566393288
 21
-0.0089894209386327
 31
0.2599999999999989
210
0.0
220
-1.0
230
6.123233995736766E-17
1001
ACAD_STEPID
1071
       15
  0
LINE
  5
CA1
330
1F
100
AcDbEntity
  8
0
100
AcDbLine
 10
2.405066566393288
 20
-0.0089894209386327
 30
0.2599999999999989
 11
3.405066566393288
 21
-0.0089894209386327
 31
0.2599999999999989
210
0.0
220
-1.0
230
6.123233995736766E-17
1001
ACAD_STEPID
1071
       15
  0
LINE
  5
CA2
330
1F
100
AcDbEntity
  8
0
100
AcDbLine
 10
3.405066566393288
 20
-0.0089894209386327
 30
-0.0000000000000009
 11
3.405066566393288
 21
-0.0089894209386327
 31
0.2599999999999989
210
0.0
220
-1.0
230
6.123233995736766E-17
1001
ACAD_STEPID
1071
       15
  0
LINE
  5
CA3
330
1F
100
AcDbEntity
  8
0
100
AcDbLine
 10
2.405066566393288
 20
-0.0089894209386327
 30
-0.0000000000000009
 11
3.405066566393288
 21
-0.0089894209386327
 31
-0.0000000000000009
210
0.0
220
-1.0
230
6.123233995736766E-17
1001
ACAD_STEPID
1071
       15
  0
LINE
  5
CA4
330
1F
100
AcDbEntity
  8
0
100
AcDbLine
 10
4.405066566393288
 20
-0.0089894209386327
 30
-0.0000000000000018
 11
4.405066566393288
 21
-0.0089894209386327
 31
0.259999999999998
210
0.0
220
-1.0
230
6.123233995736766E-17
1001
ACAD_STEPID
1071
       16
  0
LINE
  5
CA5
330
1F
100
AcDbEntity
  8
0
100
AcDbLine
 10
4.405066566393288
 20
-0.0089894209386327
 30
0.259999999999998
 11
5.405066566393288
 21
-0.0089894209386327
 31
0.259999999999998
210
0.0
220
-1.0
230
6.123233995736766E-17
1001
ACAD_STEPID
1071
       16
  0
LINE
  5
CA6
330
1F
100
AcDbEntity
  8
0
100
AcDbLine
 10
5.405066566393288
 20
-0.0089894209386327
 30
-0.0000000000000018
 11
5.405066566393288
 21
-0.0089894209386327
 31
0.259999999999998
210
0.0
220
-1.0
230
6.123233995736766E-17
1001
ACAD_STEPID
1071
       16
  0
LINE
  5
CA7
330
1F
100
AcDbEntity
  8
0
100
AcDbLine
 10
4.405066566393288
 20
-0.0089894209386327
 30
-0.0000000000000018
 11
5.405066566393288
 21
-0.0089894209386327
 31
-0.0000000000000018
210
0.0
220
-1.0
230
6.123233995736766E-17
1001
ACAD_STEPID
1071
       16
  0
LINE
  5
CA8
330
1F
100
AcDbEntity
  8
0
100
AcDbLine
 10
6.405066566393289
 20
-0.0089894209386327
 30
-0.0000000000000018
 11
6.405066566393289
 21
-0.0089894209386327
 31
0.259999999999998
210
0.0
220
-1.0
230
6.123233995736766E-17
1001
ACAD_STEPID
1071
       17
  0
LINE
  5
CA9
330
1F
100
AcDbEntity
  8
0
100
AcDbLine
 10
6.405066566393289
 20
-0.0089894209386327
 30
0.259999999999998
 11
7.405066566393289
 21
-0.0089894209386327
 31
0.259999999999998
210
0.0
220
-1.0
230
6.123233995736766E-17
1001
ACAD_STEPID
1071
       17
  0
LINE
  5
CAA
330
1F
100
AcDbEntity
  8
0
100
AcDbLine
 10
7.405066566393289
 20
-0.0089894209386327
 30
-0.0000000000000018
 11
7.405066566393289
 21
-0.0089894209386327
 31
0.259999999999998
210
0.0
220
-1.0
230
6.123233995736766E-17
1001
ACAD_STEPID
1071
       17
  0
LINE
  5
CAB
330
1F
100
AcDbEntity
  8
0
100
AcDbLine
 10
6.405066566393289
 20
-0.0089894209386327
 30
-0.0000000000000018
 11
7.405066566393289
 21
-0.0089894209386327
 31
-0.0000000000000018
210
0.0
220
-1.0
230
6.123233995736766E-17
1001
ACAD_STEPID
1071
       17
  0
LINE
  5
CAC
330
1F
100
AcDbEntity
  8
0
100
AcDbLine
 10
8.405066566393284
 20
-0.0089894209386327
 30
-0.0000000000000018
 11
8.405066566393284
 21
-0.0089894209386327
 31
0.259999999999998
210
0.0
220
-1.0
230
6.123233995736766E-17
1001
ACAD_STEPID
1071
       18
  0
LINE
  5
CAD
330
1F
100
AcDbEntity
  8
0
100
AcDbLine
 10
8.405066566393284
 20
-0.0089894209386327
 30
0.259999999999998
 11
9.405066566393273
 21
-0.0089894209386327
 31
0.259999999999998
210
0.0
220
-1.0
230
6.123233995736766E-17
1001
ACAD_STEPID
1071
       18
  0
LINE
  5
CAE
330
1F
100
AcDbEntity
  8
0
100
AcDbLine
 10
9.405066566393273
 20
-0.0089894209386327
 30
-0.0000000000000018
 11
9.405066566393273
 21
-0.0089894209386327
 31
0.259999999999998
210
0.0
220
-1.0
230
6.123233995736766E-17
1001
ACAD_STEPID
1071
       18
  0
LINE
  5
CAF
330
1F
100
AcDbEntity
  8
0
100
AcDbLine
 10
8.405066566393284
 20
-0.0089894209386327
 30
-0.0000000000000018
 11
9.405066566393273
 21
-0.0089894209386327
 31
-0.0000000000000018
210
0.0
220
-1.0
230
6.123233995736766E-17
1001
ACAD_STEPID
1071
       18
  0
LINE
  5
CB0
330
1F
100
AcDbEntity
  8
0
100
AcDbLine
 10
10.40506656639328
 20
-0.0089894209386327
 30
-0.0000000000000018
 11
10.40506656639328
 21
-0.0089894209386327
 31
0.259999999999998
210
0.0
220
-1.0
230
6.123233995736766E-17
1001
ACAD_STEPID
1071
       19
  0
LINE
  5
CB1
330
1F
100
AcDbEntity
  8
0
100
AcDbLine
 10
10.40506656639328
 20
-0.0089894209386327
 30
0.259999999999998
 11
11.40506656639327
 21
-0.0089894209386327
 31
0.259999999999998
210
0.0
220
-1.0
230
6.123233995736766E-17
1001
ACAD_STEPID
1071
       19
  0
LINE
  5
CB2
330
1F
100
AcDbEntity
  8
0
100
AcDbLine
 10
11.40506656639327
 20
-0.0089894209386327
 30
-0.0000000000000018
 11
11.40506656639327
 21
-0.0089894209386327
 31
0.259999999999998
210
0.0
220
-1.0
230
6.123233995736766E-17
1001
ACAD_STEPID
1071
       19
  0
LINE
  5
CB3
330
1F
100
AcDbEntity
  8
0
100
AcDbLine
 10
10.40506656639328
 20
-0.0089894209386327
 30
-0.0000000000000018
 11
11.40506656639327
 21
-0.0089894209386327
 31
-0.0000000000000018
210
0.0
220
-1.0
230
6.123233995736766E-17
1001
ACAD_STEPID
1071
       19
  0
LINE
  5
CB4
330
1F
100
AcDbEntity
  8
0
100
AcDbLine
 10
3.405066566393288
 20
-0.0089894209383283
 30
0.2599999999999996
 11
3.405066566393288
 21
-0.2689894209383281
 31
0.2599999999999996
1001
ACAD_STEPID
1071
       49
  0
LINE
  5
CB5
330
1F
100
AcDbEntity
  8
0
100
AcDbLine
 10
3.405066566393288
 20
-0.2689894209383281
 30
0.2599999999999996
 11
4.405066566393288
 21
-0.2689894209383281
 31
0.2599999999999996
1001
ACAD_STEPID
1071
       49
  0
LINE
  5
CB6
330
1F
100
AcDbEntity
  8
0
100
AcDbLine
 10
4.405066566393288
 20
-0.0089894209383292
 30
0.2599999999999996
 11
4.405066566393288
 21
-0.268989420938329
 31
0.2599999999999996
1001
ACAD_STEPID
1071
       49
  0
LINE
  5
CB7
330
1F
100
AcDbEntity
  8
0
100
AcDbLine
 10
3.405066566393288
 20
-0.0089894209383283
 30
0.2599999999999996
 11
4.405066566393288
 21
-0.0089894209383283
 31
0.2599999999999996
1001
ACAD_STEPID
1071
       49
  0
LINE
  5
CB8
330
1F
100
AcDbEntity
  8
0
100
AcDbLine
 10
5.405066566393289
 20
-0.0089894209383292
 30
0.2599999999999996
 11
5.405066566393289
 21
-0.268989420938329
 31
0.2599999999999996
1001
ACAD_STEPID
1071
       50
  0
LINE
  5
CB9
330
1F
100
AcDbEntity
  8
0
100
AcDbLine
 10
5.405066566393289
 20
-0.268989420938329
 30
0.2599999999999996
 11
6.405066566393289
 21
-0.268989420938329
 31
0.2599999999999996
1001
ACAD_STEPID
1071
       50
  0
LINE
  5
CBA
330
1F
100
AcDbEntity
  8
0
100
AcDbLine
 10
6.405066566393289
 20
-0.0089894209383292
 30
0.2599999999999996
 11
6.405066566393289
 21
-0.268989420938329
 31
0.2599999999999996
1001
ACAD_STEPID
1071
       50
  0
LINE
  5
CBB
330
1F
100
AcDbEntity
  8
0
100
AcDbLine
 10
5.405066566393289
 20
-0.0089894209383292
 30
0.2599999999999996
 11
6.405066566393289
 21
-0.0089894209383292
 31
0.2599999999999996
1001
ACAD_STEPID
1071
       50
  0
LINE
  5
CBC
330
1F
100
AcDbEntity
  8
0
100
AcDbLine
 10
7.405066566393289
 20
-0.0089894209383292
 30
0.2599999999999996
 11
7.405066566393289
 21
-0.268989420938329
 31
0.2599999999999996
1001
ACAD_STEPID
1071
       26
  0
LINE
  5
CBD
330
1F
100
AcDbEntity
  8
0
100
AcDbLine
 10
7.405066566393289
 20
-0.268989420938329
 30
0.2599999999999996
 11
8.405066566393284
 21
-0.268989420938329
 31
0.2599999999999996
1001
ACAD_STEPID
1071
       26
  0
LINE
  5
CBE
330
1F
100
AcDbEntity
  8
0
100
AcDbLine
 10
8.405066566393284
 20
-0.0089894209383292
 30
0.2599999999999996
 11
8.405066566393284
 21
-0.268989420938329
 31
0.2599999999999996
1001
ACAD_STEPID
1071
       26
  0
LINE
  5
CBF
330
1F
100
AcDbEntity
  8
0
100
AcDbLine
 10
7.405066566393289
 20
-0.0089894209383292
 30
0.2599999999999996
 11
8.405066566393284
 21
-0.0089894209383292
 31
0.2599999999999996
1001
ACAD_STEPID
1071
       26
  0
LINE
  5
CC0
330
1F
100
AcDbEntity
  8
0
100
AcDbLine
 10
9.405066566393282
 20
-0.0089894209383292
 30
0.2599999999999996
 11
9.405066566393282
 21
-0.268989420938329
 31
0.2599999999999996
1001
ACAD_STEPID
1071
       27
  0
LINE
  5
CC1
330
1F
100
AcDbEntity
  8
0
100
AcDbLine
 10
9.405066566393282
 20
-0.268989420938329
 30
0.2599999999999996
 11
10.40506656639328
 21
-0.268989420938329
 31
0.2599999999999996
1001
ACAD_STEPID
1071
       27
  0
LINE
  5
CC2
330
1F
100
AcDbEntity
  8
0
100
AcDbLine
 10
10.40506656639328
 20
-0.0089894209383292
 30
0.2599999999999996
 11
10.40506656639328
 21
-0.268989420938329
 31
0.2599999999999996
1001
ACAD_STEPID
1071
       27
  0
LINE
  5
CC3
330
1F
100
AcDbEntity
  8
0
100
AcDbLine
 10
9.405066566393282
 20
-0.0089894209383292
 30
0.2599999999999996
 11
10.40506656639328
 21
-0.0089894209383292
 31
0.2599999999999996
1001
ACAD_STEPID
1071
       27
  0
LINE
  5
CC4
330
1F
100
AcDbEntity
  8
0
100
AcDbLine
 10
2.405066566393288
 20
-0.2689894209383281
 30
0.2599999999999996
 11
2.405066566393288
 21
-0.0089894209383283
 31
0.2599999999999996
1001
ACAD_STEPID
1071
       45
  0
LINE
  5
CC5
330
1F
100
AcDbEntity
  8
0
100
AcDbLine
 10
2.405066566393288
 20
-0.0089894209383283
 30
0.2599999999999996
 11
3.405066566393288
 21
-0.0089894209383283
 31
0.2599999999999996
1001
ACAD_STEPID
1071
       45
  0
LINE
  5
CC6
330
1F
100
AcDbEntity
  8
0
100
AcDbLine
 10
3.405066566393288
 20
-0.2689894209383281
 30
0.2599999999999996
 11
3.405066566393288
 21
-0.0089894209383283
 31
0.2599999999999996
1001
ACAD_STEPID
1071
       45
  0
LINE
  5
CC7
330
1F
100
AcDbEntity
  8
0
100
AcDbLine
 10
2.405066566393288
 20
-0.2689894209383281
 30
0.2599999999999996
 11
3.405066566393288
 21
-0.2689894209383281
 31
0.2599999999999996
1001
ACAD_STEPID
1071
       45
  0
LINE
  5
CC8
330
1F
100
AcDbEntity
  8
0
100
AcDbLine
 10
4.405066566393288
 20
-0.268989420938329
 30
0.2599999999999996
 11
4.405066566393288
 21
-0.0089894209383292
 31
0.2599999999999996
1001
ACAD_STEPID
1071
       35
  0
LINE
  5
CC9
330
1F
100
AcDbEntity
  8
0
100
AcDbLine
 10
4.405066566393288
 20
-0.0089894209383292
 30
0.2599999999999996
 11
5.405066566393288
 21
-0.0089894209383292
 31
0.2599999999999996
1001
ACAD_STEPID
1071
       35
  0
LINE
  5
CCA
330
1F
100
AcDbEntity
  8
0
100
AcDbLine
 10
5.405066566393288
 20
-0.268989420938329
 30
0.2599999999999996
 11
5.405066566393288
 21
-0.0089894209383292
 31
0.2599999999999996
1001
ACAD_STEPID
1071
       35
  0
LINE
  5
CCB
330
1F
100
AcDbEntity
  8
0
100
AcDbLine
 10
4.405066566393288
 20
-0.268989420938329
 30
0.2599999999999996
 11
5.405066566393288
 21
-0.268989420938329
 31
0.2599999999999996
1001
ACAD_STEPID
1071
       35
  0
LINE
  5
CCC
330
1F
100
AcDbEntity
  8
0
100
AcDbLine
 10
6.405066566393289
 20
-0.268989420938329
 30
0.2599999999999996
 11
6.405066566393289
 21
-0.0089894209383292
 31
0.2599999999999996
1001
ACAD_STEPID
1071
       36
  0
LINE
  5
CCD
330
1F
100
AcDbEntity
  8
0
100
AcDbLine
 10
6.405066566393289
 20
-0.0089894209383292
 30
0.2599999999999996
 11
7.405066566393289
 21
-0.0089894209383292
 31
0.2599999999999996
1001
ACAD_STEPID
1071
       36
  0
LINE
  5
CCE
330
1F
100
AcDbEntity
  8
0
100
AcDbLine
 10
7.405066566393289
 20
-0.268989420938329
 30
0.2599999999999996
 11
7.405066566393289
 21
-0.0089894209383292
 31
0.2599999999999996
1001
ACAD_STEPID
1071
       36
  0
LINE
  5
CCF
330
1F
100
AcDbEntity
  8
0
100
AcDbLine
 10
6.405066566393289
 20
-0.268989420938329
 30
0.2599999999999996
 11
7.405066566393289
 21
-0.268989420938329
 31
0.2599999999999996
1001
ACAD_STEPID
1071
       36
  0
LINE
  5
CD0
330
1F
100
AcDbEntity
  8
0
100
AcDbLine
 10
8.405066566393284
 20
-0.268989420938329
 30
0.2599999999999996
 11
8.405066566393284
 21
-0.0089894209383292
 31
0.2599999999999996
1001
ACAD_STEPID
1071
       37
  0
LINE
  5
CD1
330
1F
100
AcDbEntity
  8
0
100
AcDbLine
 10
8.405066566393284
 20
-0.0089894209383292
 30
0.2599999999999996
 11
9.405066566393273
 21
-0.0089894209383292
 31
0.2599999999999996
1001
ACAD_STEPID
1071
       37
  0
LINE
  5
CD2
330
1F
100
AcDbEntity
  8
0
100
AcDbLine
 10
9.405066566393273
 20
-0.268989420938329
 30
0.2599999999999996
 11
9.405066566393273
 21
-0.0089894209383292
 31
0.2599999999999996
1001
ACAD_STEPID
1071
       37
  0
LINE
  5
CD3
330
1F
100
AcDbEntity
  8
0
100
AcDbLine
 10
8.405066566393284
 20
-0.268989420938329
 30
0.2599999999999996
 11
9.405066566393273
 21
-0.268989420938329
 31
0.2599999999999996
1001
ACAD_STEPID
1071
       37
  0
LINE
  5
CD4
330
1F
100
AcDbEntity
  8
0
100
AcDbLine
 10
10.40506656639328
 20
-0.268989420938329
 30
0.2599999999999996
 11
10.40506656639328
 21
-0.0089894209383292
 31
0.2599999999999996
1001
ACAD_STEPID
1071
       38
  0
LINE
  5
CD5
330
1F
100
AcDbEntity
  8
0
100
AcDbLine
 10
10.40506656639328
 20
-0.0089894209383292
 30
0.2599999999999996
 11
11.40506656639327
 21
-0.0089894209383292
 31
0.2599999999999996
1001
ACAD_STEPID
1071
       38
  0
LINE
  5
CD6
330
1F
100
AcDbEntity
  8
0
100
AcDbLine
 10
11.40506656639327
 20
-0.268989420938329
 30
0.2599999999999996
 11
11.40506656639327
 21
-0.0089894209383292
 31
0.2599999999999996
1001
ACAD_STEPID
1071
       38
  0
LINE
  5
CD7
330
1F
100
AcDbEntity
  8
0
100
AcDbLine
 10
10.40506656639328
 20
-0.268989420938329
 30
0.2599999999999996
 11
11.40506656639327
 21
-0.268989420938329
 31
0.2599999999999996
1001
ACAD_STEPID
1071
       38
  0
LINE
  5
CD8
330
1F
100
AcDbEntity
  8
0
100
AcDbLine
 10
3.405066566393288
 20
-0.0089894209383283
 30
-0.0000000000000005
 11
3.405066566393288
 21
-0.2689894209383281
 31
-0.0000000000000005
1001
ACAD_STEPID
1071
       74
  0
LINE
  5
CD9
330
1F
100
AcDbEntity
  8
0
100
AcDbLine
 10
3.405066566393288
 20
-0.2689894209383281
 30
-0.0000000000000005
 11
4.405066566393288
 21
-0.2689894209383281
 31
-0.0000000000000005
1001
ACAD_STEPID
1071
       74
  0
LINE
  5
CDA
330
1F
100
AcDbEntity
  8
0
100
AcDbLine
 10
4.405066566393288
 20
-0.0089894209383292
 30
-0.0000000000000005
 11
4.405066566393288
 21
-0.268989420938329
 31
-0.0000000000000005
1001
ACAD_STEPID
1071
       74
  0
LINE
  5
CDB
330
1F
100
AcDbEntity
  8
0
100
AcDbLine
 10
3.405066566393288
 20
-0.0089894209383283
 30
-0.0000000000000005
 11
4.405066566393288
 21
-0.0089894209383283
 31
-0.0000000000000005
1001
ACAD_STEPID
1071
       74
  0
LINE
  5
CDC
330
1F
100
AcDbEntity
  8
0
100
AcDbLine
 10
5.405066566393289
 20
-0.0089894209383292
 30
-0.0000000000000005
 11
5.405066566393289
 21
-0.268989420938329
 31
-0.0000000000000005
1001
ACAD_STEPID
1071
       75
  0
LINE
  5
CDD
330
1F
100
AcDbEntity
  8
0
100
AcDbLine
 10
5.405066566393289
 20
-0.268989420938329
 30
-0.0000000000000005
 11
6.405066566393289
 21
-0.268989420938329
 31
-0.0000000000000005
1001
ACAD_STEPID
1071
       75
  0
LINE
  5
CDE
330
1F
100
AcDbEntity
  8
0
100
AcDbLine
 10
6.405066566393289
 20
-0.0089894209383292
 30
-0.0000000000000005
 11
6.405066566393289
 21
-0.268989420938329
 31
-0.0000000000000005
1001
ACAD_STEPID
1071
       75
  0
LINE
  5
CDF
330
1F
100
AcDbEntity
  8
0
100
AcDbLine
 10
5.405066566393289
 20
-0.0089894209383292
 30
-0.0000000000000005
 11
6.405066566393289
 21
-0.0089894209383292
 31
-0.0000000000000005
1001
ACAD_STEPID
1071
       75
  0
LINE
  5
CE0
330
1F
100
AcDbEntity
  8
0
100
AcDbLine
 10
7.405066566393289
 20
-0.0089894209383292
 30
-0.0000000000000005
 11
7.405066566393289
 21
-0.268989420938329
 31
-0.0000000000000005
1001
ACAD_STEPID
1071
       51
  0
LINE
  5
CE1
330
1F
100
AcDbEntity
  8
0
100
AcDbLine
 10
7.405066566393289
 20
-0.268989420938329
 30
-0.0000000000000005
 11
8.405066566393284
 21
-0.268989420938329
 31
-0.0000000000000005
1001
ACAD_STEPID
1071
       51
  0
LINE
  5
CE2
330
1F
100
AcDbEntity
  8
0
100
AcDbLine
 10
8.405066566393284
 20
-0.0089894209383292
 30
-0.0000000000000005
 11
8.405066566393284
 21
-0.268989420938329
 31
-0.0000000000000005
1001
ACAD_STEPID
1071
       51
  0
LINE
  5
CE3
330
1F
100
AcDbEntity
  8
0
100
AcDbLine
 10
7.405066566393289
 20
-0.0089894209383292
 30
-0.0000000000000005
 11
8.405066566393284
 21
-0.0089894209383292
 31
-0.0000000000000005
1001
ACAD_STEPID
1071
       51
  0
LINE
  5
CE4
330
1F
100
AcDbEntity
  8
0
100
AcDbLine
 10
9.405066566393282
 20
-0.0089894209383292
 30
-0.0000000000000005
 11
9.405066566393282
 21
-0.268989420938329
 31
-0.0000000000000005
1001
ACAD_STEPID
1071
       52
  0
LINE
  5
CE5
330
1F
100
AcDbEntity
  8
0
100
AcDbLine
 10
9.405066566393282
 20
-0.268989420938329
 30
-0.0000000000000005
 11
10.40506656639328
 21
-0.268989420938329
 31
-0.0000000000000005
1001
ACAD_STEPID
1071
       52
  0
LINE
  5
CE6
330
1F
100
AcDbEntity
  8
0
100
AcDbLine
 10
10.40506656639328
 20
-0.0089894209383292
 30
-0.0000000000000005
 11
10.40506656639328
 21
-0.268989420938329
 31
-0.0000000000000005
1001
ACAD_STEPID
1071
       52
  0
LINE
  5
CE7
330
1F
100
AcDbEntity
  8
0
100
AcDbLine
 10
9.405066566393282
 20
-0.0089894209383292
 30
-0.0000000000000005
 11
10.40506656639328
 21
-0.0089894209383292
 31
-0.0000000000000005
1001
ACAD_STEPID
1071
       52
  0
LINE
  5
CE8
330
1F
100
AcDbEntity
  8
0
100
AcDbLine
 10
4.405066566393288
 20
-0.268989420938329
 30
-0.0000000000000005
 11
4.405066566393288
 21
-0.0089894209383292
 31
-0.0000000000000005
1001
ACAD_STEPID
1071
       60
  0
LINE
  5
CE9
330
1F
100
AcDbEntity
  8
0
100
AcDbLine
 10
4.405066566393288
 20
-0.0089894209383292
 30
-0.0000000000000005
 11
5.405066566393288
 21
-0.0089894209383292
 31
-0.0000000000000005
1001
ACAD_STEPID
1071
       60
  0
LINE
  5
CEA
330
1F
100
AcDbEntity
  8
0
100
AcDbLine
 10
5.405066566393288
 20
-0.268989420938329
 30
-0.0000000000000005
 11
5.405066566393288
 21
-0.0089894209383292
 31
-0.0000000000000005
1001
ACAD_STEPID
1071
       60
  0
LINE
  5
CEB
330
1F
100
AcDbEntity
  8
0
100
AcDbLine
 10
4.405066566393288
 20
-0.268989420938329
 30
-0.0000000000000005
 11
5.405066566393288
 21
-0.268989420938329
 31
-0.0000000000000005
1001
ACAD_STEPID
1071
       60
  0
LINE
  5
CEC
330
1F
100
AcDbEntity
  8
0
100
AcDbLine
 10
6.405066566393289
 20
-0.268989420938329
 30
-0.0000000000000005
 11
6.405066566393289
 21
-0.0089894209383292
 31
-0.0000000000000005
1001
ACAD_STEPID
1071
       61
  0
LINE
  5
CED
330
1F
100
AcDbEntity
  8
0
100
AcDbLine
 10
6.405066566393289
 20
-0.0089894209383292
 30
-0.0000000000000005
 11
7.405066566393289
 21
-0.0089894209383292
 31
-0.0000000000000005
1001
ACAD_STEPID
1071
       61
  0
LINE
  5
CEE
330
1F
100
AcDbEntity
  8
0
100
AcDbLine
 10
7.405066566393289
 20
-0.268989420938329
 30
-0.0000000000000005
 11
7.405066566393289
 21
-0.0089894209383292
 31
-0.0000000000000005
1001
ACAD_STEPID
1071
       61
  0
LINE
  5
CEF
330
1F
100
AcDbEntity
  8
0
100
AcDbLine
 10
6.405066566393289
 20
-0.268989420938329
 30
-0.0000000000000005
 11
7.405066566393289
 21
-0.268989420938329
 31
-0.0000000000000005
1001
ACAD_STEPID
1071
       61
  0
LINE
  5
CF0
330
1F
100
AcDbEntity
  8
0
100
AcDbLine
 10
8.405066566393284
 20
-0.268989420938329
 30
-0.0000000000000005
 11
8.405066566393284
 21
-0.0089894209383292
 31
-0.0000000000000005
1001
ACAD_STEPID
1071
       62
  0
LINE
  5
CF1
330
1F
100
AcDbEntity
  8
0
100
AcDbLine
 10
8.405066566393284
 20
-0.0089894209383292
 30
-0.0000000000000005
 11
9.405066566393273
 21
-0.0089894209383292
 31
-0.0000000000000005
1001
ACAD_STEPID
1071
       62
  0
LINE
  5
CF2
330
1F
100
AcDbEntity
  8
0
100
AcDbLine
 10
9.405066566393273
 20
-0.268989420938329
 30
-0.0000000000000005
 11
9.405066566393273
 21
-0.0089894209383292
 31
-0.0000000000000005
1001
ACAD_STEPID
1071
       62
  0
LINE
  5
CF3
330
1F
100
AcDbEntity
  8
0
100
AcDbLine
 10
8.405066566393284
 20
-0.268989420938329
 30
-0.0000000000000005
 11
9.405066566393273
 21
-0.268989420938329
 31
-0.0000000000000005
1001
ACAD_STEPID
1071
       62
  0
LINE
  5
CF4
330
1F
100
AcDbEntity
  8
0
100
AcDbLine
 10
10.40506656639328
 20
-0.268989420938329
 30
-0.0000000000000005
 11
10.40506656639328
 21
-0.0089894209383292
 31
-0.0000000000000005
1001
ACAD_STEPID
1071
       63
  0
LINE
  5
CF5
330
1F
100
AcDbEntity
  8
0
100
AcDbLine
 10
10.40506656639328
 20
-0.0089894209383292
 30
-0.0000000000000005
 11
11.40506656639327
 21
-0.0089894209383292
 31
-0.0000000000000005
1001
ACAD_STEPID
1071
       63
  0
LINE
  5
CF6
330
1F
100
AcDbEntity
  8
0
100
AcDbLine
 10
11.40506656639327
 20
-0.268989420938329
 30
-0.0000000000000005
 11
11.40506656639327
 21
-0.0089894209383292
 31
-0.0000000000000005
1001
ACAD_STEPID
1071
       63
  0
LINE
  5
CF7
330
1F
100
AcDbEntity
  8
0
100
AcDbLine
 10
10.40506656639328
 20
-0.268989420938329
 30
-0.0000000000000005
 11
11.40506656639327
 21
-0.268989420938329
 31
-0.0000000000000005
1001
ACAD_STEPID
1071
       63
  0
LINE
  5
CF8
330
1F
100
AcDbEntity
  8
0
100
AcDbLine
 10
3.405066566393288
 20
-0.2689894209379414
 30
0.2599999999999989
 11
3.405066566393288
 21
-0.2689894209379415
 31
-0.0000000000000009
210
0.0
220
-1.0
230
6.123233995736766E-17
1001
ACAD_STEPID
1071
       99
  0
LINE
  5
CF9
330
1F
100
AcDbEntity
  8
0
100
AcDbLine
 10
3.405066566393288
 20
-0.2689894209379415
 30
-0.0000000000000009
 11
4.405066566393288
 21
-0.2689894209379415
 31
-0.0000000000000009
210
0.0
220
-1.0
230
6.123233995736766E-17
1001
ACAD_STEPID
1071
       99
  0
LINE
  5
CFA
330
1F
100
AcDbEntity
  8
0
100
AcDbLine
 10
4.405066566393288
 20
-0.2689894209379414
 30
0.259999999999998
 11
4.405066566393288
 21
-0.2689894209379415
 31
-0.0000000000000018
210
0.0
220
-1.0
230
6.123233995736766E-17
1001
ACAD_STEPID
1071
       99
  0
LINE
  5
CFB
330
1F
100
AcDbEntity
  8
0
100
AcDbLine
 10
3.405066566393288
 20
-0.2689894209379414
 30
0.2599999999999989
 11
4.405066566393288
 21
-0.2689894209379414
 31
0.2599999999999989
210
0.0
220
-1.0
230
6.123233995736766E-17
1001
ACAD_STEPID
1071
       99
  0
LINE
  5
CFC
330
1F
100
AcDbEntity
  8
0
100
AcDbLine
 10
5.405066566393289
 20
-0.2689894209379414
 30
0.259999999999998
 11
5.405066566393289
 21
-0.2689894209379415
 31
-0.0000000000000018
210
0.0
220
-1.0
230
6.123233995736766E-17
1001
ACAD_STEPID
1071
      100
  0
LINE
  5
CFD
330
1F
100
AcDbEntity
  8
0
100
AcDbLine
 10
5.405066566393289
 20
-0.2689894209379415
 30
-0.0000000000000018
 11
6.405066566393289
 21
-0.2689894209379415
 31
-0.0000000000000018
210
0.0
220
-1.0
230
6.123233995736766E-17
1001
ACAD_STEPID
1071
      100
  0
LINE
  5
CFE
330
1F
100
AcDbEntity
  8
0
100
AcDbLine
 10
6.405066566393289
 20
-0.2689894209379414
 30
0.259999999999998
 11
6.405066566393289
 21
-0.2689894209379415
 31
-0.0000000000000018
210
0.0
220
-1.0
230
6.123233995736766E-17
1001
ACAD_STEPID
1071
      100
  0
LINE
  5
CFF
330
1F
100
AcDbEntity
  8
0
100
AcDbLine
 10
5.405066566393289
 20
-0.2689894209379414
 30
0.259999999999998
 11
6.405066566393289
 21
-0.2689894209379414
 31
0.259999999999998
210
0.0
220
-1.0
230
6.123233995736766E-17
1001
ACAD_STEPID
1071
      100
  0
LINE
  5
D00
330
1F
100
AcDbEntity
  8
0
100
AcDbLine
 10
7.405066566393289
 20
-0.2689894209379414
 30
0.259999999999998
 11
7.405066566393289
 21
-0.2689894209379415
 31
-0.0000000000000018
210
0.0
220
-1.0
230
6.123233995736766E-17
1001
ACAD_STEPID
1071
       76
  0
LINE
  5
D01
330
1F
100
AcDbEntity
  8
0
100
AcDbLine
 10
7.405066566393289
 20
-0.2689894209379415
 30
-0.0000000000000018
 11
8.405066566393284
 21
-0.2689894209379415
 31
-0.0000000000000018
210
0.0
220
-1.0
230
6.123233995736766E-17
1001
ACAD_STEPID
1071
       76
  0
LINE
  5
D02
330
1F
100
AcDbEntity
  8
0
100
AcDbLine
 10
8.405066566393284
 20
-0.2689894209379414
 30
0.259999999999998
 11
8.405066566393284
 21
-0.2689894209379415
 31
-0.0000000000000018
210
0.0
220
-1.0
230
6.123233995736766E-17
1001
ACAD_STEPID
1071
       76
  0
LINE
  5
D03
330
1F
100
AcDbEntity
  8
0
100
AcDbLine
 10
7.405066566393289
 20
-0.2689894209379414
 30
0.259999999999998
 11
8.405066566393284
 21
-0.2689894209379414
 31
0.259999999999998
210
0.0
220
-1.0
230
6.123233995736766E-17
1001
ACAD_STEPID
1071
       76
  0
LINE
  5
D04
330
1F
100
AcDbEntity
  8
0
100
AcDbLine
 10
9.405066566393282
 20
-0.2689894209379414
 30
0.259999999999998
 11
9.405066566393282
 21
-0.2689894209379415
 31
-0.0000000000000018
210
0.0
220
-1.0
230
6.123233995736766E-17
1001
ACAD_STEPID
1071
       77
  0
LINE
  5
D05
330
1F
100
AcDbEntity
  8
0
100
AcDbLine
 10
9.405066566393282
 20
-0.2689894209379415
 30
-0.0000000000000018
 11
10.40506656639328
 21
-0.2689894209379415
 31
-0.0000000000000018
210
0.0
220
-1.0
230
6.123233995736766E-17
1001
ACAD_STEPID
1071
       77
  0
LINE
  5
D06
330
1F
100
AcDbEntity
  8
0
100
AcDbLine
 10
10.40506656639328
 20
-0.2689894209379414
 30
0.259999999999998
 11
10.40506656639328
 21
-0.2689894209379415
 31
-0.0000000000000018
210
0.0
220
-1.0
230
6.123233995736766E-17
1001
ACAD_STEPID
1071
       77
  0
LINE
  5
D07
330
1F
100
AcDbEntity
  8
0
100
AcDbLine
 10
9.405066566393282
 20
-0.2689894209379414
 30
0.259999999999998
 11
10.40506656639328
 21
-0.2689894209379414
 31
0.259999999999998
210
0.0
220
-1.0
230
6.123233995736766E-17
1001
ACAD_STEPID
1071
       77
  0
LINE
  5
D08
330
1F
100
AcDbEntity
  8
0
100
AcDbLine
 10
2.405066566393288
 20
-0.2689894209379415
 30
-0.0000000000000009
 11
2.405066566393288
 21
-0.2689894209379414
 31
0.2599999999999989
210
0.0
220
-1.0
230
6.123233995736766E-17
1001
ACAD_STEPID
1071
       95
  0
LINE
  5
D09
330
1F
100
AcDbEntity
  8
0
100
AcDbLine
 10
2.405066566393288
 20
-0.2689894209379414
 30
0.2599999999999989
 11
3.405066566393288
 21
-0.2689894209379414
 31
0.2599999999999989
210
0.0
220
-1.0
230
6.123233995736766E-17
1001
ACAD_STEPID
1071
       95
  0
LINE
  5
D0A
330
1F
100
AcDbEntity
  8
0
100
AcDbLine
 10
3.405066566393288
 20
-0.2689894209379415
 30
-0.0000000000000009
 11
3.405066566393288
 21
-0.2689894209379414
 31
0.2599999999999989
210
0.0
220
-1.0
230
6.123233995736766E-17
1001
ACAD_STEPID
1071
       95
  0
LINE
  5
D0B
330
1F
100
AcDbEntity
  8
0
100
AcDbLine
 10
2.405066566393288
 20
-0.2689894209379415
 30
-0.0000000000000009
 11
3.405066566393288
 21
-0.2689894209379415
 31
-0.0000000000000009
210
0.0
220
-1.0
230
6.123233995736766E-17
1001
ACAD_STEPID
1071
       95
  0
LINE
  5
D0C
330
1F
100
AcDbEntity
  8
0
100
AcDbLine
 10
4.405066566393288
 20
-0.2689894209379415
 30
-0.0000000000000018
 11
4.405066566393288
 21
-0.2689894209379414
 31
0.259999999999998
210
0.0
220
-1.0
230
6.123233995736766E-17
1001
ACAD_STEPID
1071
       85
  0
LINE
  5
D0D
330
1F
100
AcDbEntity
  8
0
100
AcDbLine
 10
4.405066566393288
 20
-0.2689894209379414
 30
0.259999999999998
 11
5.405066566393288
 21
-0.2689894209379414
 31
0.259999999999998
210
0.0
220
-1.0
230
6.123233995736766E-17
1001
ACAD_STEPID
1071
       85
  0
LINE
  5
D0E
330
1F
100
AcDbEntity
  8
0
100
AcDbLine
 10
5.405066566393288
 20
-0.2689894209379415
 30
-0.0000000000000018
 11
5.405066566393288
 21
-0.2689894209379414
 31
0.259999999999998
210
0.0
220
-1.0
230
6.123233995736766E-17
1001
ACAD_STEPID
1071
       85
  0
LINE
  5
D0F
330
1F
100
AcDbEntity
  8
0
100
AcDbLine
 10
4.405066566393288
 20
-0.2689894209379415
 30
-0.0000000000000018
 11
5.405066566393288
 21
-0.2689894209379415
 31
-0.0000000000000018
210
0.0
220
-1.0
230
6.123233995736766E-17
1001
ACAD_STEPID
1071
       85
  0
LINE
  5
D10
330
1F
100
AcDbEntity
  8
0
100
AcDbLine
 10
6.405066566393289
 20
-0.2689894209379415
 30
-0.0000000000000018
 11
6.405066566393289
 21
-0.2689894209379414
 31
0.259999999999998
210
0.0
220
-1.0
230
6.123233995736766E-17
1001
ACAD_STEPID
1071
       86
  0
LINE
  5
D11
330
1F
100
AcDbEntity
  8
0
100
AcDbLine
 10
6.405066566393289
 20
-0.2689894209379414
 30
0.259999999999998
 11
7.405066566393289
 21
-0.2689894209379414
 31
0.259999999999998
210
0.0
220
-1.0
230
6.123233995736766E-17
1001
ACAD_STEPID
1071
       86
  0
LINE
  5
D12
330
1F
100
AcDbEntity
  8
0
100
AcDbLine
 10
7.405066566393289
 20
-0.2689894209379415
 30
-0.0000000000000018
 11
7.405066566393289
 21
-0.2689894209379414
 31
0.259999999999998
210
0.0
220
-1.0
230
6.123233995736766E-17
1001
ACAD_STEPID
1071
       86
  0
LINE
  5
D13
330
1F
100
AcDbEntity
  8
0
100
AcDbLine
 10
6.405066566393289
 20
-0.2689894209379415
 30
-0.0000000000000018
 11
7.405066566393289
 21
-0.2689894209379415
 31
-0.0000000000000018
210
0.0
220
-1.0
230
6.123233995736766E-17
1001
ACAD_STEPID
1071
       86
  0
LINE
  5
D14
330
1F
100
AcDbEntity
  8
0
100
AcDbLine
 10
8.405066566393284
 20
-0.2689894209379415
 30
-0.0000000000000018
 11
8.405066566393284
 21
-0.2689894209379414
 31
0.259999999999998
210
0.0
220
-1.0
230
6.123233995736766E-17
1001
ACAD_STEPID
1071
       87
  0
LINE
  5
D15
330
1F
100
AcDbEntity
  8
0
100
AcDbLine
 10
8.405066566393284
 20
-0.2689894209379414
 30
0.259999999999998
 11
9.405066566393273
 21
-0.2689894209379414
 31
0.259999999999998
210
0.0
220
-1.0
230
6.123233995736766E-17
1001
ACAD_STEPID
1071
       87
  0
LINE
  5
D16
330
1F
100
AcDbEntity
  8
0
100
AcDbLine
 10
9.405066566393273
 20
-0.2689894209379415
 30
-0.0000000000000018
 11
9.405066566393273
 21
-0.2689894209379414
 31
0.259999999999998
210
0.0
220
-1.0
230
6.123233995736766E-17
1001
ACAD_STEPID
1071
       87
  0
LINE
  5
D17
330
1F
100
AcDbEntity
  8
0
100
AcDbLine
 10
8.405066566393284
 20
-0.2689894209379415
 30
-0.0000000000000018
 11
9.405066566393273
 21
-0.2689894209379415
 31
-0.0000000000000018
210
0.0
220
-1.0
230
6.123233995736766E-17
1001
ACAD_STEPID
1071
       87
  0
LINE
  5
D18
330
1F
100
AcDbEntity
  8
0
100
AcDbLine
 10
10.40506656639328
 20
-0.2689894209379415
 30
-0.0000000000000018
 11
10.40506656639328
 21
-0.2689894209379414
 31
0.259999999999998
210
0.0
220
-1.0
230
6.123233995736766E-17
1001
ACAD_STEPID
1071
       88
  0
LINE
  5
D19
330
1F
100
AcDbEntity
  8
0
100
AcDbLine
 10
10.40506656639328
 20
-0.2689894209379414
 30
0.259999999999998
 11
11.40506656639327
 21
-0.2689894209379414
 31
0.259999999999998
210
0.0
220
-1.0
230
6.123233995736766E-17
1001
ACAD_STEPID
1071
       88
  0
LINE
  5
D1A
330
1F
100
AcDbEntity
  8
0
100
AcDbLine
 10
11.40506656639327
 20
-0.2689894209379415
 30
-0.0000000000000018
 11
11.40506656639327
 21
-0.2689894209379414
 31
0.259999999999998
210
0.0
220
-1.0
230
6.123233995736766E-17
1001
ACAD_STEPID
1071
       88
  0
LINE
  5
D1B
330
1F
100
AcDbEntity
  8
0
100
AcDbLine
 10
10.40506656639328
 20
-0.2689894209379415
 30
-0.0000000000000018
 11
11.40506656639327
 21
-0.2689894209379415
 31
-0.0000000000000018
210
0.0
220
-1.0
230
6.123233995736766E-17
1001
ACAD_STEPID
1071
       88
  0
LINE
  5
D1C
330
1F
100
AcDbEntity
  8
0
100
AcDbLine
 10
0.1450665663932886
 20
-0.0089894209386327
 30
0.2599999999999989
 11
0.1450665663932886
 21
-0.0089894209386327
 31
-0.0000000000000009
210
0.0
220
-1.0
230
6.123233995736766E-17
1001
ACAD_STEPID
1071
        1
  0
LINE
  5
D1D
330
1F
100
AcDbEntity
  8
0
100
AcDbLine
 10
0.1450665663932886
 20
-0.0089894209386327
 30
-0.0000000000000009
 11
0.4050665663932889
 21
-0.0089894209386327
 31
-0.0000000000000009
210
0.0
220
-1.0
230
6.123233995736766E-17
1001
ACAD_STEPID
1071
        1
  0
LINE
  5
D1E
330
1F
100
AcDbEntity
  8
0
100
AcDbLine
 10
0.4050665663932889
 20
-0.0089894209386327
 30
0.2599999999999989
 11
0.4050665663932889
 21
-0.0089894209386327
 31
-0.0000000000000009
210
0.0
220
-1.0
230
6.123233995736766E-17
1001
ACAD_STEPID
1071
        1
  0
LINE
  5
D1F
330
1F
100
AcDbEntity
  8
0
100
AcDbLine
 10
0.1450665663932886
 20
-0.0089894209386327
 30
0.2599999999999989
 11
0.4050665663932889
 21
-0.0089894209386327
 31
0.2599999999999989
210
0.0
220
-1.0
230
6.123233995736766E-17
1001
ACAD_STEPID
1071
        1
  0
LINE
  5
D20
330
1F
100
AcDbEntity
  8
0
100
AcDbLine
 10
1.405066566393289
 20
-0.0089894209386327
 30
0.2599999999999989
 11
1.405066566393289
 21
-0.0089894209386327
 31
-0.0000000000000009
210
0.0
220
-1.0
230
6.123233995736766E-17
1001
ACAD_STEPID
1071
        2
  0
LINE
  5
D21
330
1F
100
AcDbEntity
  8
0
100
AcDbLine
 10
1.405066566393289
 20
-0.0089894209386327
 30
-0.0000000000000009
 11
2.405066566393288
 21
-0.0089894209386327
 31
-0.0000000000000009
210
0.0
220
-1.0
230
6.123233995736766E-17
1001
ACAD_STEPID
1071
        2
  0
LINE
  5
D22
330
1F
100
AcDbEntity
  8
0
100
AcDbLine
 10
2.405066566393288
 20
-0.0089894209386327
 30
0.2599999999999989
 11
2.405066566393288
 21
-0.0089894209386327
 31
-0.0000000000000009
210
0.0
220
-1.0
230
6.123233995736766E-17
1001
ACAD_STEPID
1071
        2
  0
LINE
  5
D23
330
1F
100
AcDbEntity
  8
0
100
AcDbLine
 10
1.405066566393289
 20
-0.0089894209386327
 30
0.2599999999999989
 11
2.405066566393288
 21
-0.0089894209386327
 31
0.2599999999999989
210
0.0
220
-1.0
230
6.123233995736766E-17
1001
ACAD_STEPID
1071
        2
  0
LINE
  5
D24
330
1F
100
AcDbEntity
  8
0
100
AcDbLine
 10
11.40506656639328
 20
-0.0089894209386327
 30
0.259999999999998
 11
11.40506656639328
 21
-0.0089894209386327
 31
-0.0000000000000018
210
0.0
220
-1.0
230
6.123233995736766E-17
1001
ACAD_STEPID
1071
        7
  0
LINE
  5
D25
330
1F
100
AcDbEntity
  8
0
100
AcDbLine
 10
11.40506656639328
 20
-0.0089894209386327
 30
-0.0000000000000018
 11
12.40506656639328
 21
-0.0089894209386327
 31
-0.0000000000000018
210
0.0
220
-1.0
230
6.123233995736766E-17
1001
ACAD_STEPID
1071
        7
  0
LINE
  5
D26
330
1F
100
AcDbEntity
  8
0
100
AcDbLine
 10
12.40506656639328
 20
-0.0089894209386327
 30
0.259999999999998
 11
12.40506656639328
 21
-0.0089894209386327
 31
-0.0000000000000018
210
0.0
220
-1.0
230
6.123233995736766E-17
1001
ACAD_STEPID
1071
        7
  0
LINE
  5
D27
330
1F
100
AcDbEntity
  8
0
100
AcDbLine
 10
11.40506656639328
 20
-0.0089894209386327
 30
0.259999999999998
 11
12.40506656639328
 21
-0.0089894209386327
 31
0.259999999999998
210
0.0
220
-1.0
230
6.123233995736766E-17
1001
ACAD_STEPID
1071
        7
  0
LINE
  5
D28
330
1F
100
AcDbEntity
  8
0
100
AcDbLine
 10
13.40506656639328
 20
-0.0089894209386327
 30
0.259999999999998
 11
13.40506656639328
 21
-0.0089894209386327
 31
-0.0000000000000018
210
0.0
220
-1.0
230
6.123233995736766E-17
1001
ACAD_STEPID
1071
        8
  0
LINE
  5
D29
330
1F
100
AcDbEntity
  8
0
100
AcDbLine
 10
13.40506656639328
 20
-0.0089894209386327
 30
-0.0000000000000018
 11
14.40506656639328
 21
-0.0089894209386327
 31
-0.0000000000000018
210
0.0
220
-1.0
230
6.123233995736766E-17
1001
ACAD_STEPID
1071
        8
  0
LINE
  5
D2A
330
1F
100
AcDbEntity
  8
0
100
AcDbLine
 10
14.40506656639328
 20
-0.0089894209386327
 30
0.259999999999998
 11
14.40506656639328
 21
-0.0089894209386327
 31
-0.0000000000000018
210
0.0
220
-1.0
230
6.123233995736766E-17
1001
ACAD_STEPID
1071
        8
  0
LINE
  5
D2B
330
1F
100
AcDbEntity
  8
0
100
AcDbLine
 10
13.40506656639328
 20
-0.0089894209386327
 30
0.259999999999998
 11
14.40506656639328
 21
-0.0089894209386327
 31
0.259999999999998
210
0.0
220
-1.0
230
6.123233995736766E-17
1001
ACAD_STEPID
1071
        8
  0
LINE
  5
D2C
330
1F
100
AcDbEntity
  8
0
100
AcDbLine
 10
15.40506656639328
 20
-0.0089894209386327
 30
0.259999999999998
 11
15.40506656639328
 21
-0.0089894209386327
 31
-0.0000000000000018
210
0.0
220
-1.0
230
6.123233995736766E-17
1001
ACAD_STEPID
1071
        9
  0
LINE
  5
D2D
330
1F
100
AcDbEntity
  8
0
100
AcDbLine
 10
15.40506656639328
 20
-0.0089894209386327
 30
-0.0000000000000018
 11
16.40506656639329
 21
-0.0089894209386327
 31
-0.0000000000000018
210
0.0
220
-1.0
230
6.123233995736766E-17
1001
ACAD_STEPID
1071
        9
  0
LINE
  5
D2E
330
1F
100
AcDbEntity
  8
0
100
AcDbLine
 10
16.40506656639329
 20
-0.0089894209386327
 30
0.259999999999998
 11
16.40506656639329
 21
-0.0089894209386327
 31
-0.0000000000000018
210
0.0
220
-1.0
230
6.123233995736766E-17
1001
ACAD_STEPID
1071
        9
  0
LINE
  5
D2F
330
1F
100
AcDbEntity
  8
0
100
AcDbLine
 10
15.40506656639328
 20
-0.0089894209386327
 30
0.259999999999998
 11
16.40506656639329
 21
-0.0089894209386327
 31
0.259999999999998
210
0.0
220
-1.0
230
6.123233995736766E-17
1001
ACAD_STEPID
1071
        9
  0
LINE
  5
D30
330
1F
100
AcDbEntity
  8
0
100
AcDbLine
 10
17.40506656639328
 20
-0.0089894209386327
 30
0.259999999999998
 11
17.40506656639328
 21
-0.0089894209386327
 31
-0.0000000000000018
210
0.0
220
-1.0
230
6.123233995736766E-17
1001
ACAD_STEPID
1071
       10
  0
LINE
  5
D31
330
1F
100
AcDbEntity
  8
0
100
AcDbLine
 10
17.40506656639328
 20
-0.0089894209386327
 30
-0.0000000000000018
 11
18.40506656639328
 21
-0.0089894209386327
 31
-0.0000000000000018
210
0.0
220
-1.0
230
6.123233995736766E-17
1001
ACAD_STEPID
1071
       10
  0
LINE
  5
D32
330
1F
100
AcDbEntity
  8
0
100
AcDbLine
 10
18.40506656639328
 20
-0.0089894209386327
 30
0.259999999999998
 11
18.40506656639328
 21
-0.0089894209386327
 31
-0.0000000000000018
210
0.0
220
-1.0
230
6.123233995736766E-17
1001
ACAD_STEPID
1071
       10
  0
LINE
  5
D33
330
1F
100
AcDbEntity
  8
0
100
AcDbLine
 10
17.40506656639328
 20
-0.0089894209386327
 30
0.259999999999998
 11
18.40506656639328
 21
-0.0089894209386327
 31
0.259999999999998
210
0.0
220
-1.0
230
6.123233995736766E-17
1001
ACAD_STEPID
1071
       10
  0
LINE
  5
D34
330
1F
100
AcDbEntity
  8
0
100
AcDbLine
 10
19.40506656639329
 20
-0.0089894209386327
 30
0.259999999999998
 11
19.40506656639329
 21
-0.0089894209386327
 31
-0.0000000000000018
210
0.0
220
-1.0
230
6.123233995736766E-17
1001
ACAD_STEPID
1071
       11
  0
LINE
  5
D35
330
1F
100
AcDbEntity
  8
0
100
AcDbLine
 10
19.40506656639329
 20
-0.0089894209386327
 30
-0.0000000000000018
 11
20.40506656639329
 21
-0.0089894209386327
 31
-0.0000000000000018
210
0.0
220
-1.0
230
6.123233995736766E-17
1001
ACAD_STEPID
1071
       11
  0
LINE
  5
D36
330
1F
100
AcDbEntity
  8
0
100
AcDbLine
 10
20.40506656639329
 20
-0.0089894209386327
 30
0.259999999999998
 11
20.40506656639329
 21
-0.0089894209386327
 31
-0.0000000000000018
210
0.0
220
-1.0
230
6.123233995736766E-17
1001
ACAD_STEPID
1071
       11
  0
LINE
  5
D37
330
1F
100
AcDbEntity
  8
0
100
AcDbLine
 10
19.40506656639329
 20
-0.0089894209386327
 30
0.259999999999998
 11
20.40506656639329
 21
-0.0089894209386327
 31
0.259999999999998
210
0.0
220
-1.0
230
6.123233995736766E-17
1001
ACAD_STEPID
1071
       11
  0
LINE
  5
D38
330
1F
100
AcDbEntity
  8
0
100
AcDbLine
 10
21.40506656639329
 20
-0.0089894209386327
 30
0.259999999999998
 11
21.40506656639329
 21
-0.0089894209386327
 31
-0.0000000000000018
210
0.0
220
-1.0
230
6.123233995736766E-17
1001
ACAD_STEPID
1071
       12
  0
LINE
  5
D39
330
1F
100
AcDbEntity
  8
0
100
AcDbLine
 10
21.40506656639329
 20
-0.0089894209386327
 30
-0.0000000000000018
 11
22.40506656639329
 21
-0.0089894209386327
 31
-0.0000000000000018
210
0.0
220
-1.0
230
6.123233995736766E-17
1001
ACAD_STEPID
1071
       12
  0
LINE
  5
D3A
330
1F
100
AcDbEntity
  8
0
100
AcDbLine
 10
22.40506656639329
 20
-0.0089894209386327
 30
0.259999999999998
 11
22.40506656639329
 21
-0.0089894209386327
 31
-0.0000000000000018
210
0.0
220
-1.0
230
6.123233995736766E-17
1001
ACAD_STEPID
1071
       12
  0
LINE
  5
D3B
330
1F
100
AcDbEntity
  8
0
100
AcDbLine
 10
21.40506656639329
 20
-0.0089894209386327
 30
0.259999999999998
 11
22.40506656639329
 21
-0.0089894209386327
 31
0.259999999999998
210
0.0
220
-1.0
230
6.123233995736766E-17
1001
ACAD_STEPID
1071
       12
  0
LINE
  5
D3C
330
1F
100
AcDbEntity
  8
0
100
AcDbLine
 10
23.40506656639328
 20
-0.0089894209386327
 30
0.259999999999998
 11
23.40506656639328
 21
-0.0089894209386327
 31
-0.0000000000000018
210
0.0
220
-1.0
230
6.123233995736766E-17
1001
ACAD_STEPID
1071
       13
  0
LINE
  5
D3D
330
1F
100
AcDbEntity
  8
0
100
AcDbLine
 10
23.40506656639328
 20
-0.0089894209386327
 30
-0.0000000000000018
 11
24.40506656639329
 21
-0.0089894209386327
 31
-0.0000000000000018
210
0.0
220
-1.0
230
6.123233995736766E-17
1001
ACAD_STEPID
1071
       13
  0
LINE
  5
D3E
330
1F
100
AcDbEntity
  8
0
100
AcDbLine
 10
24.40506656639329
 20
-0.0089894209386327
 30
0.259999999999998
 11
24.40506656639329
 21
-0.0089894209386327
 31
-0.0000000000000018
210
0.0
220
-1.0
230
6.123233995736766E-17
1001
ACAD_STEPID
1071
       13
  0
LINE
  5
D3F
330
1F
100
AcDbEntity
  8
0
100
AcDbLine
 10
23.40506656639328
 20
-0.0089894209386327
 30
0.259999999999998
 11
24.40506656639329
 21
-0.0089894209386327
 31
0.259999999999998
210
0.0
220
-1.0
230
6.123233995736766E-17
1001
ACAD_STEPID
1071
       13
  0
LINE
  5
D40
330
1F
100
AcDbEntity
  8
0
100
AcDbLine
 10
0.4050665663932889
 20
-0.0089894209386327
 30
-0.0000000000000009
 11
0.4050665663932889
 21
-0.0089894209386327
 31
0.2599999999999989
210
0.0
220
-1.0
230
6.123233995736766E-17
1001
ACAD_STEPID
1071
       14
  0
LINE
  5
D41
330
1F
100
AcDbEntity
  8
0
100
AcDbLine
 10
0.4050665663932889
 20
-0.0089894209386327
 30
0.2599999999999989
 11
1.405066566393289
 21
-0.0089894209386327
 31
0.2599999999999989
210
0.0
220
-1.0
230
6.123233995736766E-17
1001
ACAD_STEPID
1071
       14
  0
LINE
  5
D42
330
1F
100
AcDbEntity
  8
0
100
AcDbLine
 10
1.405066566393289
 20
-0.0089894209386327
 30
-0.0000000000000009
 11
1.405066566393289
 21
-0.0089894209386327
 31
0.2599999999999989
210
0.0
220
-1.0
230
6.123233995736766E-17
1001
ACAD_STEPID
1071
       14
  0
LINE
  5
D43
330
1F
100
AcDbEntity
  8
0
100
AcDbLine
 10
0.4050665663932889
 20
-0.0089894209386327
 30
-0.0000000000000009
 11
1.405066566393289
 21
-0.0089894209386327
 31
-0.0000000000000009
210
0.0
220
-1.0
230
6.123233995736766E-17
1001
ACAD_STEPID
1071
       14
  0
LINE
  5
D44
330
1F
100
AcDbEntity
  8
0
100
AcDbLine
 10
12.40506656639328
 20
-0.0089894209386327
 30
-0.0000000000000018
 11
12.40506656639328
 21
-0.0089894209386327
 31
0.259999999999998
210
0.0
220
-1.0
230
6.123233995736766E-17
1001
ACAD_STEPID
1071
       20
  0
LINE
  5
D45
330
1F
100
AcDbEntity
  8
0
100
AcDbLine
 10
12.40506656639328
 20
-0.0089894209386327
 30
0.259999999999998
 11
13.40506656639327
 21
-0.0089894209386327
 31
0.259999999999998
210
0.0
220
-1.0
230
6.123233995736766E-17
1001
ACAD_STEPID
1071
       20
  0
LINE
  5
D46
330
1F
100
AcDbEntity
  8
0
100
AcDbLine
 10
13.40506656639327
 20
-0.0089894209386327
 30
-0.0000000000000018
 11
13.40506656639327
 21
-0.0089894209386327
 31
0.259999999999998
210
0.0
220
-1.0
230
6.123233995736766E-17
1001
ACAD_STEPID
1071
       20
  0
LINE
  5
D47
330
1F
100
AcDbEntity
  8
0
100
AcDbLine
 10
12.40506656639328
 20
-0.0089894209386327
 30
-0.0000000000000018
 11
13.40506656639327
 21
-0.0089894209386327
 31
-0.0000000000000018
210
0.0
220
-1.0
230
6.123233995736766E-17
1001
ACAD_STEPID
1071
       20
  0
LINE
  5
D48
330
1F
100
AcDbEntity
  8
0
100
AcDbLine
 10
14.40506656639328
 20
-0.0089894209386327
 30
-0.0000000000000018
 11
14.40506656639328
 21
-0.0089894209386327
 31
0.259999999999998
210
0.0
220
-1.0
230
6.123233995736766E-17
1001
ACAD_STEPID
1071
       21
  0
LINE
  5
D49
330
1F
100
AcDbEntity
  8
0
100
AcDbLine
 10
14.40506656639328
 20
-0.0089894209386327
 30
0.259999999999998
 11
15.40506656639327
 21
-0.0089894209386327
 31
0.259999999999998
210
0.0
220
-1.0
230
6.123233995736766E-17
1001
ACAD_STEPID
1071
       21
  0
LINE
  5
D4A
330
1F
100
AcDbEntity
  8
0
100
AcDbLine
 10
15.40506656639327
 20
-0.0089894209386327
 30
-0.0000000000000018
 11
15.40506656639327
 21
-0.0089894209386327
 31
0.259999999999998
210
0.0
220
-1.0
230
6.123233995736766E-17
1001
ACAD_STEPID
1071
       21
  0
LINE
  5
D4B
330
1F
100
AcDbEntity
  8
0
100
AcDbLine
 10
14.40506656639328
 20
-0.0089894209386327
 30
-0.0000000000000018
 11
15.40506656639327
 21
-0.0089894209386327
 31
-0.0000000000000018
210
0.0
220
-1.0
230
6.123233995736766E-17
1001
ACAD_STEPID
1071
       21
  0
LINE
  5
D4C
330
1F
100
AcDbEntity
  8
0
100
AcDbLine
 10
16.40506656639329
 20
-0.0089894209386327
 30
-0.0000000000000018
 11
16.40506656639329
 21
-0.0089894209386327
 31
0.259999999999998
210
0.0
220
-1.0
230
6.123233995736766E-17
1001
ACAD_STEPID
1071
       22
  0
LINE
  5
D4D
330
1F
100
AcDbEntity
  8
0
100
AcDbLine
 10
16.40506656639329
 20
-0.0089894209386327
 30
0.259999999999998
 11
17.40506656639328
 21
-0.0089894209386327
 31
0.259999999999998
210
0.0
220
-1.0
230
6.123233995736766E-17
1001
ACAD_STEPID
1071
       22
  0
LINE
  5
D4E
330
1F
100
AcDbEntity
  8
0
100
AcDbLine
 10
17.40506656639328
 20
-0.0089894209386327
 30
-0.0000000000000018
 11
17.40506656639328
 21
-0.0089894209386327
 31
0.259999999999998
210
0.0
220
-1.0
230
6.123233995736766E-17
1001
ACAD_STEPID
1071
       22
  0
LINE
  5
D4F
330
1F
100
AcDbEntity
  8
0
100
AcDbLine
 10
16.40506656639329
 20
-0.0089894209386327
 30
-0.0000000000000018
 11
17.40506656639328
 21
-0.0089894209386327
 31
-0.0000000000000018
210
0.0
220
-1.0
230
6.123233995736766E-17
1001
ACAD_STEPID
1071
       22
  0
LINE
  5
D50
330
1F
100
AcDbEntity
  8
0
100
AcDbLine
 10
18.40506656639328
 20
-0.0089894209386327
 30
-0.0000000000000018
 11
18.40506656639328
 21
-0.0089894209386327
 31
0.259999999999998
210
0.0
220
-1.0
230
6.123233995736766E-17
1001
ACAD_STEPID
1071
       23
  0
LINE
  5
D51
330
1F
100
AcDbEntity
  8
0
100
AcDbLine
 10
18.40506656639328
 20
-0.0089894209386327
 30
0.259999999999998
 11
19.40506656639327
 21
-0.0089894209386327
 31
0.259999999999998
210
0.0
220
-1.0
230
6.123233995736766E-17
1001
ACAD_STEPID
1071
       23
  0
LINE
  5
D52
330
1F
100
AcDbEntity
  8
0
100
AcDbLine
 10
19.40506656639327
 20
-0.0089894209386327
 30
-0.0000000000000018
 11
19.40506656639327
 21
-0.0089894209386327
 31
0.259999999999998
210
0.0
220
-1.0
230
6.123233995736766E-17
1001
ACAD_STEPID
1071
       23
  0
LINE
  5
D53
330
1F
100
AcDbEntity
  8
0
100
AcDbLine
 10
18.40506656639328
 20
-0.0089894209386327
 30
-0.0000000000000018
 11
19.40506656639327
 21
-0.0089894209386327
 31
-0.0000000000000018
210
0.0
220
-1.0
230
6.123233995736766E-17
1001
ACAD_STEPID
1071
       23
  0
LINE
  5
D54
330
1F
100
AcDbEntity
  8
0
100
AcDbLine
 10
20.40506656639329
 20
-0.0089894209386327
 30
-0.0000000000000018
 11
20.40506656639329
 21
-0.0089894209386327
 31
0.259999999999998
210
0.0
220
-1.0
230
6.123233995736766E-17
1001
ACAD_STEPID
1071
       24
  0
LINE
  5
D55
330
1F
100
AcDbEntity
  8
0
100
AcDbLine
 10
20.40506656639329
 20
-0.0089894209386327
 30
0.259999999999998
 11
21.40506656639328
 21
-0.0089894209386327
 31
0.259999999999998
210
0.0
220
-1.0
230
6.123233995736766E-17
1001
ACAD_STEPID
1071
       24
  0
LINE
  5
D56
330
1F
100
AcDbEntity
  8
0
100
AcDbLine
 10
21.40506656639328
 20
-0.0089894209386327
 30
-0.0000000000000018
 11
21.40506656639328
 21
-0.0089894209386327
 31
0.259999999999998
210
0.0
220
-1.0
230
6.123233995736766E-17
1001
ACAD_STEPID
1071
       24
  0
LINE
  5
D57
330
1F
100
AcDbEntity
  8
0
100
AcDbLine
 10
20.40506656639329
 20
-0.0089894209386327
 30
-0.0000000000000018
 11
21.40506656639328
 21
-0.0089894209386327
 31
-0.0000000000000018
210
0.0
220
-1.0
230
6.123233995736766E-17
1001
ACAD_STEPID
1071
       24
  0
LINE
  5
D58
330
1F
100
AcDbEntity
  8
0
100
AcDbLine
 10
22.40506656639329
 20
-0.0089894209386327
 30
-0.0000000000000018
 11
22.40506656639329
 21
-0.0089894209386327
 31
0.259999999999998
210
0.0
220
-1.0
230
6.123233995736766E-17
1001
ACAD_STEPID
1071
       25
  0
LINE
  5
D59
330
1F
100
AcDbEntity
  8
0
100
AcDbLine
 10
22.40506656639329
 20
-0.0089894209386327
 30
0.259999999999998
 11
23.40506656639328
 21
-0.0089894209386327
 31
0.259999999999998
210
0.0
220
-1.0
230
6.123233995736766E-17
1001
ACAD_STEPID
1071
       25
  0
LINE
  5
D5A
330
1F
100
AcDbEntity
  8
0
100
AcDbLine
 10
23.40506656639328
 20
-0.0089894209386327
 30
-0.0000000000000018
 11
23.40506656639328
 21
-0.0089894209386327
 31
0.259999999999998
210
0.0
220
-1.0
230
6.123233995736766E-17
1001
ACAD_STEPID
1071
       25
  0
LINE
  5
D5B
330
1F
100
AcDbEntity
  8
0
100
AcDbLine
 10
22.40506656639329
 20
-0.0089894209386327
 30
-0.0000000000000018
 11
23.40506656639328
 21
-0.0089894209386327
 31
-0.0000000000000018
210
0.0
220
-1.0
230
6.123233995736766E-17
1001
ACAD_STEPID
1071
       25
  0
LINE
  5
D5C
330
1F
100
AcDbEntity
  8
0
100
AcDbLine
 10
0.1450665663932886
 20
-0.0089894209383283
 30
0.2599999999999996
 11
0.1450665663932886
 21
-0.2689894209383281
 31
0.2599999999999996
1001
ACAD_STEPID
1071
       47
  0
LINE
  5
D5D
330
1F
100
AcDbEntity
  8
0
100
AcDbLine
 10
0.1450665663932886
 20
-0.2689894209383281
 30
0.2599999999999996
 11
0.4050665663932889
 21
-0.2689894209383281
 31
0.2599999999999996
1001
ACAD_STEPID
1071
       47
  0
LINE
  5
D5E
330
1F
100
AcDbEntity
  8
0
100
AcDbLine
 10
0.4050665663932889
 20
-0.0089894209383283
 30
0.2599999999999996
 11
0.4050665663932889
 21
-0.2689894209383281
 31
0.2599999999999996
1001
ACAD_STEPID
1071
       47
  0
LINE
  5
D5F
330
1F
100
AcDbEntity
  8
0
100
AcDbLine
 10
0.1450665663932886
 20
-0.0089894209383283
 30
0.2599999999999996
 11
0.4050665663932889
 21
-0.0089894209383283
 31
0.2599999999999996
1001
ACAD_STEPID
1071
       47
  0
LINE
  5
D60
330
1F
100
AcDbEntity
  8
0
100
AcDbLine
 10
1.405066566393289
 20
-0.0089894209383283
 30
0.2599999999999996
 11
1.405066566393289
 21
-0.2689894209383281
 31
0.2599999999999996
1001
ACAD_STEPID
1071
       48
  0
LINE
  5
D61
330
1F
100
AcDbEntity
  8
0
100
AcDbLine
 10
1.405066566393289
 20
-0.2689894209383281
 30
0.2599999999999996
 11
2.405066566393288
 21
-0.2689894209383281
 31
0.2599999999999996
1001
ACAD_STEPID
1071
       48
  0
LINE
  5
D62
330
1F
100
AcDbEntity
  8
0
100
AcDbLine
 10
2.405066566393288
 20
-0.0089894209383283
 30
0.2599999999999996
 11
2.405066566393288
 21
-0.2689894209383281
 31
0.2599999999999996
1001
ACAD_STEPID
1071
       48
  0
LINE
  5
D63
330
1F
100
AcDbEntity
  8
0
100
AcDbLine
 10
1.405066566393289
 20
-0.0089894209383283
 30
0.2599999999999996
 11
2.405066566393288
 21
-0.0089894209383283
 31
0.2599999999999996
1001
ACAD_STEPID
1071
       48
  0
LINE
  5
D64
330
1F
100
AcDbEntity
  8
0
100
AcDbLine
 10
11.40506656639328
 20
-0.0089894209383292
 30
0.2599999999999996
 11
11.40506656639328
 21
-0.268989420938329
 31
0.2599999999999996
1001
ACAD_STEPID
1071
       28
  0
LINE
  5
D65
330
1F
100
AcDbEntity
  8
0
100
AcDbLine
 10
11.40506656639328
 20
-0.268989420938329
 30
0.2599999999999996
 11
12.40506656639328
 21
-0.268989420938329
 31
0.2599999999999996
1001
ACAD_STEPID
1071
       28
  0
LINE
  5
D66
330
1F
100
AcDbEntity
  8
0
100
AcDbLine
 10
12.40506656639328
 20
-0.0089894209383292
 30
0.2599999999999996
 11
12.40506656639328
 21
-0.268989420938329
 31
0.2599999999999996
1001
ACAD_STEPID
1071
       28
  0
LINE
  5
D67
330
1F
100
AcDbEntity
  8
0
100
AcDbLine
 10
11.40506656639328
 20
-0.0089894209383292
 30
0.2599999999999996
 11
12.40506656639328
 21
-0.0089894209383292
 31
0.2599999999999996
1001
ACAD_STEPID
1071
       28
  0
LINE
  5
D68
330
1F
100
AcDbEntity
  8
0
100
AcDbLine
 10
13.40506656639328
 20
-0.0089894209383292
 30
0.2599999999999996
 11
13.40506656639328
 21
-0.268989420938329
 31
0.2599999999999996
1001
ACAD_STEPID
1071
       29
  0
LINE
  5
D69
330
1F
100
AcDbEntity
  8
0
100
AcDbLine
 10
13.40506656639328
 20
-0.268989420938329
 30
0.2599999999999996
 11
14.40506656639328
 21
-0.268989420938329
 31
0.2599999999999996
1001
ACAD_STEPID
1071
       29
  0
LINE
  5
D6A
330
1F
100
AcDbEntity
  8
0
100
AcDbLine
 10
14.40506656639328
 20
-0.0089894209383292
 30
0.2599999999999996
 11
14.40506656639328
 21
-0.268989420938329
 31
0.2599999999999996
1001
ACAD_STEPID
1071
       29
  0
LINE
  5
D6B
330
1F
100
AcDbEntity
  8
0
100
AcDbLine
 10
13.40506656639328
 20
-0.0089894209383292
 30
0.2599999999999996
 11
14.40506656639328
 21
-0.0089894209383292
 31
0.2599999999999996
1001
ACAD_STEPID
1071
       29
  0
LINE
  5
D6C
330
1F
100
AcDbEntity
  8
0
100
AcDbLine
 10
15.40506656639328
 20
-0.0089894209383292
 30
0.2599999999999996
 11
15.40506656639328
 21
-0.268989420938329
 31
0.2599999999999996
1001
ACAD_STEPID
1071
       30
  0
LINE
  5
D6D
330
1F
100
AcDbEntity
  8
0
100
AcDbLine
 10
15.40506656639328
 20
-0.268989420938329
 30
0.2599999999999996
 11
16.40506656639329
 21
-0.268989420938329
 31
0.2599999999999996
1001
ACAD_STEPID
1071
       30
  0
LINE
  5
D6E
330
1F
100
AcDbEntity
  8
0
100
AcDbLine
 10
16.40506656639329
 20
-0.0089894209383292
 30
0.2599999999999996
 11
16.40506656639329
 21
-0.268989420938329
 31
0.2599999999999996
1001
ACAD_STEPID
1071
       30
  0
LINE
  5
D6F
330
1F
100
AcDbEntity
  8
0
100
AcDbLine
 10
15.40506656639328
 20
-0.0089894209383292
 30
0.2599999999999996
 11
16.40506656639329
 21
-0.0089894209383292
 31
0.2599999999999996
1001
ACAD_STEPID
1071
       30
  0
LINE
  5
D70
330
1F
100
AcDbEntity
  8
0
100
AcDbLine
 10
17.40506656639328
 20
-0.0089894209383292
 30
0.2599999999999996
 11
17.40506656639328
 21
-0.268989420938329
 31
0.2599999999999996
1001
ACAD_STEPID
1071
       31
  0
LINE
  5
D71
330
1F
100
AcDbEntity
  8
0
100
AcDbLine
 10
17.40506656639328
 20
-0.268989420938329
 30
0.2599999999999996
 11
18.40506656639328
 21
-0.268989420938329
 31
0.2599999999999996
1001
ACAD_STEPID
1071
       31
  0
LINE
  5
D72
330
1F
100
AcDbEntity
  8
0
100
AcDbLine
 10
18.40506656639328
 20
-0.0089894209383292
 30
0.2599999999999996
 11
18.40506656639328
 21
-0.268989420938329
 31
0.2599999999999996
1001
ACAD_STEPID
1071
       31
  0
LINE
  5
D73
330
1F
100
AcDbEntity
  8
0
100
AcDbLine
 10
17.40506656639328
 20
-0.0089894209383292
 30
0.2599999999999996
 11
18.40506656639328
 21
-0.0089894209383292
 31
0.2599999999999996
1001
ACAD_STEPID
1071
       31
  0
LINE
  5
D74
330
1F
100
AcDbEntity
  8
0
100
AcDbLine
 10
19.40506656639329
 20
-0.0089894209383292
 30
0.2599999999999996
 11
19.40506656639329
 21
-0.268989420938329
 31
0.2599999999999996
1001
ACAD_STEPID
1071
       32
  0
LINE
  5
D75
330
1F
100
AcDbEntity
  8
0
100
AcDbLine
 10
19.40506656639329
 20
-0.268989420938329
 30
0.2599999999999996
 11
20.40506656639329
 21
-0.268989420938329
 31
0.2599999999999996
1001
ACAD_STEPID
1071
       32
  0
LINE
  5
D76
330
1F
100
AcDbEntity
  8
0
100
AcDbLine
 10
20.40506656639329
 20
-0.0089894209383292
 30
0.2599999999999996
 11
20.40506656639329
 21
-0.268989420938329
 31
0.2599999999999996
1001
ACAD_STEPID
1071
       32
  0
LINE
  5
D77
330
1F
100
AcDbEntity
  8
0
100
AcDbLine
 10
19.40506656639329
 20
-0.0089894209383292
 30
0.2599999999999996
 11
20.40506656639329
 21
-0.0089894209383292
 31
0.2599999999999996
1001
ACAD_STEPID
1071
       32
  0
LINE
  5
D78
330
1F
100
AcDbEntity
  8
0
100
AcDbLine
 10
21.40506656639329
 20
-0.0089894209383292
 30
0.2599999999999996
 11
21.40506656639329
 21
-0.268989420938329
 31
0.2599999999999996
1001
ACAD_STEPID
1071
       33
  0
LINE
  5
D79
330
1F
100
AcDbEntity
  8
0
100
AcDbLine
 10
21.40506656639329
 20
-0.268989420938329
 30
0.2599999999999996
 11
22.40506656639329
 21
-0.268989420938329
 31
0.2599999999999996
1001
ACAD_STEPID
1071
       33
  0
LINE
  5
D7A
330
1F
100
AcDbEntity
  8
0
100
AcDbLine
 10
22.40506656639329
 20
-0.0089894209383292
 30
0.2599999999999996
 11
22.40506656639329
 21
-0.268989420938329
 31
0.2599999999999996
1001
ACAD_STEPID
1071
       33
  0
LINE
  5
D7B
330
1F
100
AcDbEntity
  8
0
100
AcDbLine
 10
21.40506656639329
 20
-0.0089894209383292
 30
0.2599999999999996
 11
22.40506656639329
 21
-0.0089894209383292
 31
0.2599999999999996
1001
ACAD_STEPID
1071
       33
  0
LINE
  5
D7C
330
1F
100
AcDbEntity
  8
0
100
AcDbLine
 10
23.40506656639328
 20
-0.0089894209383292
 30
0.2599999999999996
 11
23.40506656639328
 21
-0.268989420938329
 31
0.2599999999999996
1001
ACAD_STEPID
1071
       34
  0
LINE
  5
D7D
330
1F
100
AcDbEntity
  8
0
100
AcDbLine
 10
23.40506656639328
 20
-0.268989420938329
 30
0.2599999999999996
 11
24.40506656639329
 21
-0.268989420938329
 31
0.2599999999999996
1001
ACAD_STEPID
1071
       34
  0
LINE
  5
D7E
330
1F
100
AcDbEntity
  8
0
100
AcDbLine
 10
24.40506656639329
 20
-0.0089894209383292
 30
0.2599999999999996
 11
24.40506656639329
 21
-0.268989420938329
 31
0.2599999999999996
1001
ACAD_STEPID
1071
       34
  0
LINE
  5
D7F
330
1F
100
AcDbEntity
  8
0
100
AcDbLine
 10
23.40506656639328
 20
-0.0089894209383292
 30
0.2599999999999996
 11
24.40506656639329
 21
-0.0089894209383292
 31
0.2599999999999996
1001
ACAD_STEPID
1071
       34
  0
LINE
  5
D80
330
1F
100
AcDbEntity
  8
0
100
AcDbLine
 10
0.4050665663932889
 20
-0.2689894209383281
 30
0.2599999999999996
 11
0.4050665663932889
 21
-0.0089894209383283
 31
0.2599999999999996
1001
ACAD_STEPID
1071
       44
  0
LINE
  5
D81
330
1F
100
AcDbEntity
  8
0
100
AcDbLine
 10
0.4050665663932889
 20
-0.0089894209383283
 30
0.2599999999999996
 11
1.405066566393289
 21
-0.0089894209383283
 31
0.2599999999999996
1001
ACAD_STEPID
1071
       44
  0
LINE
  5
D82
330
1F
100
AcDbEntity
  8
0
100
AcDbLine
 10
1.405066566393289
 20
-0.2689894209383281
 30
0.2599999999999996
 11
1.405066566393289
 21
-0.0089894209383283
 31
0.2599999999999996
1001
ACAD_STEPID
1071
       44
  0
LINE
  5
D83
330
1F
100
AcDbEntity
  8
0
100
AcDbLine
 10
0.4050665663932889
 20
-0.2689894209383281
 30
0.2599999999999996
 11
1.405066566393289
 21
-0.2689894209383281
 31
0.2599999999999996
1001
ACAD_STEPID
1071
       44
  0
LINE
  5
D84
330
1F
100
AcDbEntity
  8
0
100
AcDbLine
 10
12.40506656639328
 20
-0.268989420938329
 30
0.2599999999999996
 11
12.40506656639328
 21
-0.0089894209383292
 31
0.2599999999999996
1001
ACAD_STEPID
1071
       39
  0
LINE
  5
D85
330
1F
100
AcDbEntity
  8
0
100
AcDbLine
 10
12.40506656639328
 20
-0.0089894209383292
 30
0.2599999999999996
 11
13.40506656639327
 21
-0.0089894209383292
 31
0.2599999999999996
1001
ACAD_STEPID
1071
       39
  0
LINE
  5
D86
330
1F
100
AcDbEntity
  8
0
100
AcDbLine
 10
13.40506656639327
 20
-0.268989420938329
 30
0.2599999999999996
 11
13.40506656639327
 21
-0.0089894209383292
 31
0.2599999999999996
1001
ACAD_STEPID
1071
       39
  0
LINE
  5
D87
330
1F
100
AcDbEntity
  8
0
100
AcDbLine
 10
12.40506656639328
 20
-0.268989420938329
 30
0.2599999999999996
 11
13.40506656639327
 21
-0.268989420938329
 31
0.2599999999999996
1001
ACAD_STEPID
1071
       39
  0
LINE
  5
D88
330
1F
100
AcDbEntity
  8
0
100
AcDbLine
 10
14.40506656639328
 20
-0.268989420938329
 30
0.2599999999999996
 11
14.40506656639328
 21
-0.0089894209383292
 31
0.2599999999999996
1001
ACAD_STEPID
1071
       40
  0
LINE
  5
D89
330
1F
100
AcDbEntity
  8
0
100
AcDbLine
 10
14.40506656639328
 20
-0.0089894209383292
 30
0.2599999999999996
 11
15.40506656639327
 21
-0.0089894209383292
 31
0.2599999999999996
1001
ACAD_STEPID
1071
       40
  0
LINE
  5
D8A
330
1F
100
AcDbEntity
  8
0
100
AcDbLine
 10
15.40506656639327
 20
-0.268989420938329
 30
0.2599999999999996
 11
15.40506656639327
 21
-0.0089894209383292
 31
0.2599999999999996
1001
ACAD_STEPID
1071
       40
  0
LINE
  5
D8B
330
1F
100
AcDbEntity
  8
0
100
AcDbLine
 10
14.40506656639328
 20
-0.268989420938329
 30
0.2599999999999996
 11
15.40506656639327
 21
-0.268989420938329
 31
0.2599999999999996
1001
ACAD_STEPID
1071
       40
  0
LINE
  5
D8C
330
1F
100
AcDbEntity
  8
0
100
AcDbLine
 10
16.40506656639329
 20
-0.268989420938329
 30
0.2599999999999996
 11
16.40506656639329
 21
-0.0089894209383292
 31
0.2599999999999996
1001
ACAD_STEPID
1071
       41
  0
LINE
  5
D8D
330
1F
100
AcDbEntity
  8
0
100
AcDbLine
 10
16.40506656639329
 20
-0.0089894209383292
 30
0.2599999999999996
 11
17.40506656639328
 21
-0.0089894209383292
 31
0.2599999999999996
1001
ACAD_STEPID
1071
       41
  0
LINE
  5
D8E
330
1F
100
AcDbEntity
  8
0
100
AcDbLine
 10
17.40506656639328
 20
-0.268989420938329
 30
0.2599999999999996
 11
17.40506656639328
 21
-0.0089894209383292
 31
0.2599999999999996
1001
ACAD_STEPID
1071
       41
  0
LINE
  5
D8F
330
1F
100
AcDbEntity
  8
0
100
AcDbLine
 10
16.40506656639329
 20
-0.268989420938329
 30
0.2599999999999996
 11
17.40506656639328
 21
-0.268989420938329
 31
0.2599999999999996
1001
ACAD_STEPID
1071
       41
  0
LINE
  5
D90
330
1F
100
AcDbEntity
  8
0
100
AcDbLine
 10
18.40506656639328
 20
-0.268989420938329
 30
0.2599999999999996
 11
18.40506656639328
 21
-0.0089894209383292
 31
0.2599999999999996
1001
ACAD_STEPID
1071
       42
  0
LINE
  5
D91
330
1F
100
AcDbEntity
  8
0
100
AcDbLine
 10
18.40506656639328
 20
-0.0089894209383292
 30
0.2599999999999996
 11
19.40506656639327
 21
-0.0089894209383292
 31
0.2599999999999996
1001
ACAD_STEPID
1071
       42
  0
LINE
  5
D92
330
1F
100
AcDbEntity
  8
0
100
AcDbLine
 10
19.40506656639327
 20
-0.268989420938329
 30
0.2599999999999996
 11
19.40506656639327
 21
-0.0089894209383292
 31
0.2599999999999996
1001
ACAD_STEPID
1071
       42
  0
LINE
  5
D93
330
1F
100
AcDbEntity
  8
0
100
AcDbLine
 10
18.40506656639328
 20
-0.268989420938329
 30
0.2599999999999996
 11
19.40506656639327
 21
-0.268989420938329
 31
0.2599999999999996
1001
ACAD_STEPID
1071
       42
  0
LINE
  5
D94
330
1F
100
AcDbEntity
  8
0
100
AcDbLine
 10
20.40506656639329
 20
-0.268989420938329
 30
0.2599999999999996
 11
20.40506656639329
 21
-0.0089894209383292
 31
0.2599999999999996
1001
ACAD_STEPID
1071
       43
  0
LINE
  5
D95
330
1F
100
AcDbEntity
  8
0
100
AcDbLine
 10
20.40506656639329
 20
-0.0089894209383292
 30
0.2599999999999996
 11
21.40506656639328
 21
-0.0089894209383292
 31
0.2599999999999996
1001
ACAD_STEPID
1071
       43
  0
LINE
  5
D96
330
1F
100
AcDbEntity
  8
0
100
AcDbLine
 10
21.40506656639328
 20
-0.268989420938329
 30
0.2599999999999996
 11
21.40506656639328
 21
-0.0089894209383292
 31
0.2599999999999996
1001
ACAD_STEPID
1071
       43
  0
LINE
  5
D97
330
1F
100
AcDbEntity
  8
0
100
AcDbLine
 10
20.40506656639329
 20
-0.268989420938329
 30
0.2599999999999996
 11
21.40506656639328
 21
-0.268989420938329
 31
0.2599999999999996
1001
ACAD_STEPID
1071
       43
  0
LINE
  5
D98
330
1F
100
AcDbEntity
  8
0
100
AcDbLine
 10
22.40506656639329
 20
-0.268989420938329
 30
0.2599999999999996
 11
22.40506656639329
 21
-0.0089894209383292
 31
0.2599999999999996
1001
ACAD_STEPID
1071
       46
  0
LINE
  5
D99
330
1F
100
AcDbEntity
  8
0
100
AcDbLine
 10
22.40506656639329
 20
-0.0089894209383292
 30
0.2599999999999996
 11
23.40506656639328
 21
-0.0089894209383292
 31
0.2599999999999996
1001
ACAD_STEPID
1071
       46
  0
LINE
  5
D9A
330
1F
100
AcDbEntity
  8
0
100
AcDbLine
 10
23.40506656639328
 20
-0.268989420938329
 30
0.2599999999999996
 11
23.40506656639328
 21
-0.0089894209383292
 31
0.2599999999999996
1001
ACAD_STEPID
1071
       46
  0
LINE
  5
D9B
330
1F
100
AcDbEntity
  8
0
100
AcDbLine
 10
22.40506656639329
 20
-0.268989420938329
 30
0.2599999999999996
 11
23.40506656639328
 21
-0.268989420938329
 31
0.2599999999999996
1001
ACAD_STEPID
1071
       46
  0
LINE
  5
D9C
330
1F
100
AcDbEntity
  8
0
100
AcDbLine
 10
0.1450665663932886
 20
-0.0089894209383283
 30
-0.0000000000000005
 11
0.1450665663932886
 21
-0.2689894209383281
 31
-0.0000000000000005
1001
ACAD_STEPID
1071
       72
  0
LINE
  5
D9D
330
1F
100
AcDbEntity
  8
0
100
AcDbLine
 10
0.1450665663932886
 20
-0.2689894209383281
 30
-0.0000000000000005
 11
0.4050665663932889
 21
-0.2689894209383281
 31
-0.0000000000000005
1001
ACAD_STEPID
1071
       72
  0
LINE
  5
D9E
330
1F
100
AcDbEntity
  8
0
100
AcDbLine
 10
0.4050665663932889
 20
-0.0089894209383283
 30
-0.0000000000000005
 11
0.4050665663932889
 21
-0.2689894209383281
 31
-0.0000000000000005
1001
ACAD_STEPID
1071
       72
  0
LINE
  5
D9F
330
1F
100
AcDbEntity
  8
0
100
AcDbLine
 10
0.1450665663932886
 20
-0.0089894209383283
 30
-0.0000000000000005
 11
0.4050665663932889
 21
-0.0089894209383283
 31
-0.0000000000000005
1001
ACAD_STEPID
1071
       72
  0
LINE
  5
DA0
330
1F
100
AcDbEntity
  8
0
100
AcDbLine
 10
1.405066566393289
 20
-0.0089894209383283
 30
-0.0000000000000005
 11
1.405066566393289
 21
-0.2689894209383281
 31
-0.0000000000000005
1001
ACAD_STEPID
1071
       73
  0
LINE
  5
DA1
330
1F
100
AcDbEntity
  8
0
100
AcDbLine
 10
1.405066566393289
 20
-0.2689894209383281
 30
-0.0000000000000005
 11
2.405066566393288
 21
-0.2689894209383281
 31
-0.0000000000000005
1001
ACAD_STEPID
1071
       73
  0
LINE
  5
DA2
330
1F
100
AcDbEntity
  8
0
100
AcDbLine
 10
2.405066566393288
 20
-0.0089894209383283
 30
-0.0000000000000005
 11
2.405066566393288
 21
-0.2689894209383281
 31
-0.0000000000000005
1001
ACAD_STEPID
1071
       73
  0
LINE
  5
DA3
330
1F
100
AcDbEntity
  8
0
100
AcDbLine
 10
1.405066566393289
 20
-0.0089894209383283
 30
-0.0000000000000005
 11
2.405066566393288
 21
-0.0089894209383283
 31
-0.0000000000000005
1001
ACAD_STEPID
1071
       73
  0
LINE
  5
DA4
330
1F
100
AcDbEntity
  8
0
100
AcDbLine
 10
11.40506656639328
 20
-0.0089894209383292
 30
-0.0000000000000005
 11
11.40506656639328
 21
-0.268989420938329
 31
-0.0000000000000005
1001
ACAD_STEPID
1071
       53
  0
LINE
  5
DA5
330
1F
100
AcDbEntity
  8
0
100
AcDbLine
 10
11.40506656639328
 20
-0.268989420938329
 30
-0.0000000000000005
 11
12.40506656639328
 21
-0.268989420938329
 31
-0.0000000000000005
1001
ACAD_STEPID
1071
       53
  0
LINE
  5
DA6
330
1F
100
AcDbEntity
  8
0
100
AcDbLine
 10
12.40506656639328
 20
-0.0089894209383292
 30
-0.0000000000000005
 11
12.40506656639328
 21
-0.268989420938329
 31
-0.0000000000000005
1001
ACAD_STEPID
1071
       53
  0
LINE
  5
DA7
330
1F
100
AcDbEntity
  8
0
100
AcDbLine
 10
11.40506656639328
 20
-0.0089894209383292
 30
-0.0000000000000005
 11
12.40506656639328
 21
-0.0089894209383292
 31
-0.0000000000000005
1001
ACAD_STEPID
1071
       53
  0
LINE
  5
DA8
330
1F
100
AcDbEntity
  8
0
100
AcDbLine
 10
13.40506656639328
 20
-0.0089894209383292
 30
-0.0000000000000005
 11
13.40506656639328
 21
-0.268989420938329
 31
-0.0000000000000005
1001
ACAD_STEPID
1071
       54
  0
LINE
  5
DA9
330
1F
100
AcDbEntity
  8
0
100
AcDbLine
 10
13.40506656639328
 20
-0.268989420938329
 30
-0.0000000000000005
 11
14.40506656639328
 21
-0.268989420938329
 31
-0.0000000000000005
1001
ACAD_STEPID
1071
       54
  0
LINE
  5
DAA
330
1F
100
AcDbEntity
  8
0
100
AcDbLine
 10
14.40506656639328
 20
-0.0089894209383292
 30
-0.0000000000000005
 11
14.40506656639328
 21
-0.268989420938329
 31
-0.0000000000000005
1001
ACAD_STEPID
1071
       54
  0
LINE
  5
DAB
330
1F
100
AcDbEntity
  8
0
100
AcDbLine
 10
13.40506656639328
 20
-0.0089894209383292
 30
-0.0000000000000005
 11
14.40506656639328
 21
-0.0089894209383292
 31
-0.0000000000000005
1001
ACAD_STEPID
1071
       54
  0
LINE
  5
DAC
330
1F
100
AcDbEntity
  8
0
100
AcDbLine
 10
15.40506656639328
 20
-0.0089894209383292
 30
-0.0000000000000005
 11
15.40506656639328
 21
-0.268989420938329
 31
-0.0000000000000005
1001
ACAD_STEPID
1071
       55
  0
LINE
  5
DAD
330
1F
100
AcDbEntity
  8
0
100
AcDbLine
 10
15.40506656639328
 20
-0.268989420938329
 30
-0.0000000000000005
 11
16.40506656639329
 21
-0.268989420938329
 31
-0.0000000000000005
1001
ACAD_STEPID
1071
       55
  0
LINE
  5
DAE
330
1F
100
AcDbEntity
  8
0
100
AcDbLine
 10
16.40506656639329
 20
-0.0089894209383292
 30
-0.0000000000000005
 11
16.40506656639329
 21
-0.268989420938329
 31
-0.0000000000000005
1001
ACAD_STEPID
1071
       55
  0
LINE
  5
DAF
330
1F
100
AcDbEntity
  8
0
100
AcDbLine
 10
15.40506656639328
 20
-0.0089894209383292
 30
-0.0000000000000005
 11
16.40506656639329
 21
-0.0089894209383292
 31
-0.0000000000000005
1001
ACAD_STEPID
1071
       55
  0
LINE
  5
DB0
330
1F
100
AcDbEntity
  8
0
100
AcDbLine
 10
17.40506656639328
 20
-0.0089894209383292
 30
-0.0000000000000005
 11
17.40506656639328
 21
-0.268989420938329
 31
-0.0000000000000005
1001
ACAD_STEPID
1071
       56
  0
LINE
  5
DB1
330
1F
100
AcDbEntity
  8
0
100
AcDbLine
 10
17.40506656639328
 20
-0.268989420938329
 30
-0.0000000000000005
 11
18.40506656639328
 21
-0.268989420938329
 31
-0.0000000000000005
1001
ACAD_STEPID
1071
       56
  0
LINE
  5
DB2
330
1F
100
AcDbEntity
  8
0
100
AcDbLine
 10
18.40506656639328
 20
-0.0089894209383292
 30
-0.0000000000000005
 11
18.40506656639328
 21
-0.268989420938329
 31
-0.0000000000000005
1001
ACAD_STEPID
1071
       56
  0
LINE
  5
DB3
330
1F
100
AcDbEntity
  8
0
100
AcDbLine
 10
17.40506656639328
 20
-0.0089894209383292
 30
-0.0000000000000005
 11
18.40506656639328
 21
-0.0089894209383292
 31
-0.0000000000000005
1001
ACAD_STEPID
1071
       56
  0
LINE
  5
DB4
330
1F
100
AcDbEntity
  8
0
100
AcDbLine
 10
19.40506656639329
 20
-0.0089894209383292
 30
-0.0000000000000005
 11
19.40506656639329
 21
-0.268989420938329
 31
-0.0000000000000005
1001
ACAD_STEPID
1071
       57
  0
LINE
  5
DB5
330
1F
100
AcDbEntity
  8
0
100
AcDbLine
 10
19.40506656639329
 20
-0.268989420938329
 30
-0.0000000000000005
 11
20.40506656639329
 21
-0.268989420938329
 31
-0.0000000000000005
1001
ACAD_STEPID
1071
       57
  0
LINE
  5
DB6
330
1F
100
AcDbEntity
  8
0
100
AcDbLine
 10
20.40506656639329
 20
-0.0089894209383292
 30
-0.0000000000000005
 11
20.40506656639329
 21
-0.268989420938329
 31
-0.0000000000000005
1001
ACAD_STEPID
1071
       57
  0
LINE
  5
DB7
330
1F
100
AcDbEntity
  8
0
100
AcDbLine
 10
19.40506656639329
 20
-0.0089894209383292
 30
-0.0000000000000005
 11
20.40506656639329
 21
-0.0089894209383292
 31
-0.0000000000000005
1001
ACAD_STEPID
1071
       57
  0
LINE
  5
DB8
330
1F
100
AcDbEntity
  8
0
100
AcDbLine
 10
21.40506656639329
 20
-0.0089894209383292
 30
-0.0000000000000005
 11
21.40506656639329
 21
-0.268989420938329
 31
-0.0000000000000005
1001
ACAD_STEPID
1071
       58
  0
LINE
  5
DB9
330
1F
100
AcDbEntity
  8
0
100
AcDbLine
 10
21.40506656639329
 20
-0.268989420938329
 30
-0.0000000000000005
 11
22.40506656639329
 21
-0.268989420938329
 31
-0.0000000000000005
1001
ACAD_STEPID
1071
       58
  0
LINE
  5
DBA
330
1F
100
AcDbEntity
  8
0
100
AcDbLine
 10
22.40506656639329
 20
-0.0089894209383292
 30
-0.0000000000000005
 11
22.40506656639329
 21
-0.268989420938329
 31
-0.0000000000000005
1001
ACAD_STEPID
1071
       58
  0
LINE
  5
DBB
330
1F
100
AcDbEntity
  8
0
100
AcDbLine
 10
21.40506656639329
 20
-0.0089894209383292
 30
-0.0000000000000005
 11
22.40506656639329
 21
-0.0089894209383292
 31
-0.0000000000000005
1001
ACAD_STEPID
1071
       58
  0
LINE
  5
DBC
330
1F
100
AcDbEntity
  8
0
100
AcDbLine
 10
23.40506656639328
 20
-0.0089894209383292
 30
-0.0000000000000005
 11
23.40506656639328
 21
-0.268989420938329
 31
-0.0000000000000005
1001
ACAD_STEPID
1071
       59
  0
LINE
  5
DBD
330
1F
100
AcDbEntity
  8
0
100
AcDbLine
 10
23.40506656639328
 20
-0.268989420938329
 30
-0.0000000000000005
 11
24.40506656639329
 21
-0.268989420938329
 31
-0.0000000000000005
1001
ACAD_STEPID
1071
       59
  0
LINE
  5
DBE
330
1F
100
AcDbEntity
  8
0
100
AcDbLine
 10
24.40506656639329
 20
-0.0089894209383292
 30
-0.0000000000000005
 11
24.40506656639329
 21
-0.268989420938329
 31
-0.0000000000000005
1001
ACAD_STEPID
1071
       59
  0
LINE
  5
DBF
330
1F
100
AcDbEntity
  8
0
100
AcDbLine
 10
23.40506656639328
 20
-0.0089894209383292
 30
-0.0000000000000005
 11
24.40506656639329
 21
-0.0089894209383292
 31
-0.0000000000000005
1001
ACAD_STEPID
1071
       59
  0
LINE
  5
DC0
330
1F
100
AcDbEntity
  8
0
100
AcDbLine
 10
0.4050665663932889
 20
-0.2689894209383281
 30
-0.0000000000000005
 11
0.4050665663932889
 21
-0.0089894209383283
 31
-0.0000000000000005
1001
ACAD_STEPID
1071
       69
  0
LINE
  5
DC1
330
1F
100
AcDbEntity
  8
0
100
AcDbLine
 10
0.4050665663932889
 20
-0.0089894209383283
 30
-0.0000000000000005
 11
1.405066566393289
 21
-0.0089894209383283
 31
-0.0000000000000005
1001
ACAD_STEPID
1071
       69
  0
LINE
  5
DC2
330
1F
100
AcDbEntity
  8
0
100
AcDbLine
 10
1.405066566393289
 20
-0.2689894209383281
 30
-0.0000000000000005
 11
1.405066566393289
 21
-0.0089894209383283
 31
-0.0000000000000005
1001
ACAD_STEPID
1071
       69
  0
LINE
  5
DC3
330
1F
100
AcDbEntity
  8
0
100
AcDbLine
 10
0.4050665663932889
 20
-0.2689894209383281
 30
-0.0000000000000005
 11
1.405066566393289
 21
-0.2689894209383281
 31
-0.0000000000000005
1001
ACAD_STEPID
1071
       69
  0
LINE
  5
DC4
330
1F
100
AcDbEntity
  8
0
100
AcDbLine
 10
2.405066566393288
 20
-0.2689894209383281
 30
-0.0000000000000005
 11
2.405066566393288
 21
-0.0089894209383283
 31
-0.0000000000000005
1001
ACAD_STEPID
1071
       70
  0
LINE
  5
DC5
330
1F
100
AcDbEntity
  8
0
100
AcDbLine
 10
2.405066566393288
 20
-0.0089894209383283
 30
-0.0000000000000005
 11
3.405066566393288
 21
-0.0089894209383283
 31
-0.0000000000000005
1001
ACAD_STEPID
1071
       70
  0
LINE
  5
DC6
330
1F
100
AcDbEntity
  8
0
100
AcDbLine
 10
3.405066566393288
 20
-0.2689894209383281
 30
-0.0000000000000005
 11
3.405066566393288
 21
-0.0089894209383283
 31
-0.0000000000000005
1001
ACAD_STEPID
1071
       70
  0
LINE
  5
DC7
330
1F
100
AcDbEntity
  8
0
100
AcDbLine
 10
2.405066566393288
 20
-0.2689894209383281
 30
-0.0000000000000005
 11
3.405066566393288
 21
-0.2689894209383281
 31
-0.0000000000000005
1001
ACAD_STEPID
1071
       70
  0
LINE
  5
DC8
330
1F
100
AcDbEntity
  8
0
100
AcDbLine
 10
12.40506656639328
 20
-0.268989420938329
 30
-0.0000000000000005
 11
12.40506656639328
 21
-0.0089894209383292
 31
-0.0000000000000005
1001
ACAD_STEPID
1071
       64
  0
LINE
  5
DC9
330
1F
100
AcDbEntity
  8
0
100
AcDbLine
 10
12.40506656639328
 20
-0.0089894209383292
 30
-0.0000000000000005
 11
13.40506656639327
 21
-0.0089894209383292
 31
-0.0000000000000005
1001
ACAD_STEPID
1071
       64
  0
LINE
  5
DCA
330
1F
100
AcDbEntity
  8
0
100
AcDbLine
 10
13.40506656639327
 20
-0.268989420938329
 30
-0.0000000000000005
 11
13.40506656639327
 21
-0.0089894209383292
 31
-0.0000000000000005
1001
ACAD_STEPID
1071
       64
  0
LINE
  5
DCB
330
1F
100
AcDbEntity
  8
0
100
AcDbLine
 10
12.40506656639328
 20
-0.268989420938329
 30
-0.0000000000000005
 11
13.40506656639327
 21
-0.268989420938329
 31
-0.0000000000000005
1001
ACAD_STEPID
1071
       64
  0
LINE
  5
DCC
330
1F
100
AcDbEntity
  8
0
100
AcDbLine
 10
14.40506656639328
 20
-0.268989420938329
 30
-0.0000000000000005
 11
14.40506656639328
 21
-0.0089894209383292
 31
-0.0000000000000005
1001
ACAD_STEPID
1071
       65
  0
LINE
  5
DCD
330
1F
100
AcDbEntity
  8
0
100
AcDbLine
 10
14.40506656639328
 20
-0.0089894209383292
 30
-0.0000000000000005
 11
15.40506656639327
 21
-0.0089894209383292
 31
-0.0000000000000005
1001
ACAD_STEPID
1071
       65
  0
LINE
  5
DCE
330
1F
100
AcDbEntity
  8
0
100
AcDbLine
 10
15.40506656639327
 20
-0.268989420938329
 30
-0.0000000000000005
 11
15.40506656639327
 21
-0.0089894209383292
 31
-0.0000000000000005
1001
ACAD_STEPID
1071
       65
  0
LINE
  5
DCF
330
1F
100
AcDbEntity
  8
0
100
AcDbLine
 10
14.40506656639328
 20
-0.268989420938329
 30
-0.0000000000000005
 11
15.40506656639327
 21
-0.268989420938329
 31
-0.0000000000000005
1001
ACAD_STEPID
1071
       65
  0
LINE
  5
DD0
330
1F
100
AcDbEntity
  8
0
100
AcDbLine
 10
16.40506656639329
 20
-0.268989420938329
 30
-0.0000000000000005
 11
16.40506656639329
 21
-0.0089894209383292
 31
-0.0000000000000005
1001
ACAD_STEPID
1071
       66
  0
LINE
  5
DD1
330
1F
100
AcDbEntity
  8
0
100
AcDbLine
 10
16.40506656639329
 20
-0.0089894209383292
 30
-0.0000000000000005
 11
17.40506656639328
 21
-0.0089894209383292
 31
-0.0000000000000005
1001
ACAD_STEPID
1071
       66
  0
LINE
  5
DD2
330
1F
100
AcDbEntity
  8
0
100
AcDbLine
 10
17.40506656639328
 20
-0.268989420938329
 30
-0.0000000000000005
 11
17.40506656639328
 21
-0.0089894209383292
 31
-0.0000000000000005
1001
ACAD_STEPID
1071
       66
  0
LINE
  5
DD3
330
1F
100
AcDbEntity
  8
0
100
AcDbLine
 10
16.40506656639329
 20
-0.268989420938329
 30
-0.0000000000000005
 11
17.40506656639328
 21
-0.268989420938329
 31
-0.0000000000000005
1001
ACAD_STEPID
1071
       66
  0
LINE
  5
DD4
330
1F
100
AcDbEntity
  8
0
100
AcDbLine
 10
18.40506656639328
 20
-0.268989420938329
 30
-0.0000000000000005
 11
18.40506656639328
 21
-0.0089894209383292
 31
-0.0000000000000005
1001
ACAD_STEPID
1071
       67
  0
LINE
  5
DD5
330
1F
100
AcDbEntity
  8
0
100
AcDbLine
 10
18.40506656639328
 20
-0.0089894209383292
 30
-0.0000000000000005
 11
19.40506656639327
 21
-0.0089894209383292
 31
-0.0000000000000005
1001
ACAD_STEPID
1071
       67
  0
LINE
  5
DD6
330
1F
100
AcDbEntity
  8
0
100
AcDbLine
 10
19.40506656639327
 20
-0.268989420938329
 30
-0.0000000000000005
 11
19.40506656639327
 21
-0.0089894209383292
 31
-0.0000000000000005
1001
ACAD_STEPID
1071
       67
  0
LINE
  5
DD7
330
1F
100
AcDbEntity
  8
0
100
AcDbLine
 10
18.40506656639328
 20
-0.268989420938329
 30
-0.0000000000000005
 11
19.40506656639327
 21
-0.268989420938329
 31
-0.0000000000000005
1001
ACAD_STEPID
1071
       67
  0
LINE
  5
DD8
330
1F
100
AcDbEntity
  8
0
100
AcDbLine
 10
20.40506656639329
 20
-0.268989420938329
 30
-0.0000000000000005
 11
20.40506656639329
 21
-0.0089894209383292
 31
-0.0000000000000005
1001
ACAD_STEPID
1071
       68
  0
LINE
  5
DD9
330
1F
100
AcDbEntity
  8
0
100
AcDbLine
 10
20.40506656639329
 20
-0.0089894209383292
 30
-0.0000000000000005
 11
21.40506656639328
 21
-0.0089894209383292
 31
-0.0000000000000005
1001
ACAD_STEPID
1071
       68
  0
LINE
  5
DDA
330
1F
100
AcDbEntity
  8
0
100
AcDbLine
 10
21.40506656639328
 20
-0.268989420938329
 30
-0.0000000000000005
 11
21.40506656639328
 21
-0.0089894209383292
 31
-0.0000000000000005
1001
ACAD_STEPID
1071
       68
  0
LINE
  5
DDB
330
1F
100
AcDbEntity
  8
0
100
AcDbLine
 10
20.40506656639329
 20
-0.268989420938329
 30
-0.0000000000000005
 11
21.40506656639328
 21
-0.268989420938329
 31
-0.0000000000000005
1001
ACAD_STEPID
1071
       68
  0
LINE
  5
DDC
330
1F
100
AcDbEntity
  8
0
100
AcDbLine
 10
22.40506656639329
 20
-0.268989420938329
 30
-0.0000000000000005
 11
22.40506656639329
 21
-0.0089894209383292
 31
-0.0000000000000005
1001
ACAD_STEPID
1071
       71
  0
LINE
  5
DDD
330
1F
100
AcDbEntity
  8
0
100
AcDbLine
 10
22.40506656639329
 20
-0.0089894209383292
 30
-0.0000000000000005
 11
23.40506656639328
 21
-0.0089894209383292
 31
-0.0000000000000005
1001
ACAD_STEPID
1071
       71
  0
LINE
  5
DDE
330
1F
100
AcDbEntity
  8
0
100
AcDbLine
 10
23.40506656639328
 20
-0.268989420938329
 30
-0.0000000000000005
 11
23.40506656639328
 21
-0.0089894209383292
 31
-0.0000000000000005
1001
ACAD_STEPID
1071
       71
  0
LINE
  5
DDF
330
1F
100
AcDbEntity
  8
0
100
AcDbLine
 10
22.40506656639329
 20
-0.268989420938329
 30
-0.0000000000000005
 11
23.40506656639328
 21
-0.268989420938329
 31
-0.0000000000000005
1001
ACAD_STEPID
1071
       71
  0
LINE
  5
DE0
330
1F
100
AcDbEntity
  8
0
100
AcDbLine
 10
0.1450665663932886
 20
-0.2689894209379414
 30
0.2599999999999989
 11
0.1450665663932886
 21
-0.2689894209379415
 31
-0.0000000000000009
210
0.0
220
-1.0
230
6.123233995736766E-17
1001
ACAD_STEPID
1071
       97
  0
LINE
  5
DE1
330
1F
100
AcDbEntity
  8
0
100
AcDbLine
 10
0.1450665663932886
 20
-0.2689894209379415
 30
-0.0000000000000009
 11
0.4050665663932889
 21
-0.2689894209379415
 31
-0.0000000000000009
210
0.0
220
-1.0
230
6.123233995736766E-17
1001
ACAD_STEPID
1071
       97
  0
LINE
  5
DE2
330
1F
100
AcDbEntity
  8
0
100
AcDbLine
 10
0.4050665663932889
 20
-0.2689894209379414
 30
0.2599999999999989
 11
0.4050665663932889
 21
-0.2689894209379415
 31
-0.0000000000000009
210
0.0
220
-1.0
230
6.123233995736766E-17
1001
ACAD_STEPID
1071
       97
  0
LINE
  5
DE3
330
1F
100
AcDbEntity
  8
0
100
AcDbLine
 10
0.1450665663932886
 20
-0.2689894209379414
 30
0.2599999999999989
 11
0.4050665663932889
 21
-0.2689894209379414
 31
0.2599999999999989
210
0.0
220
-1.0
230
6.123233995736766E-17
1001
ACAD_STEPID
1071
       97
  0
LINE
  5
DE4
330
1F
100
AcDbEntity
  8
0
100
AcDbLine
 10
1.405066566393289
 20
-0.2689894209379414
 30
0.2599999999999989
 11
1.405066566393289
 21
-0.2689894209379415
 31
-0.0000000000000009
210
0.0
220
-1.0
230
6.123233995736766E-17
1001
ACAD_STEPID
1071
       98
  0
LINE
  5
DE5
330
1F
100
AcDbEntity
  8
0
100
AcDbLine
 10
1.405066566393289
 20
-0.2689894209379415
 30
-0.0000000000000009
 11
2.405066566393288
 21
-0.2689894209379415
 31
-0.0000000000000009
210
0.0
220
-1.0
230
6.123233995736766E-17
1001
ACAD_STEPID
1071
       98
  0
LINE
  5
DE6
330
1F
100
AcDbEntity
  8
0
100
AcDbLine
 10
2.405066566393288
 20
-0.2689894209379414
 30
0.2599999999999989
 11
2.405066566393288
 21
-0.2689894209379415
 31
-0.0000000000000009
210
0.0
220
-1.0
230
6.123233995736766E-17
1001
ACAD_STEPID
1071
       98
  0
LINE
  5
DE7
330
1F
100
AcDbEntity
  8
0
100
AcDbLine
 10
1.405066566393289
 20
-0.2689894209379414
 30
0.2599999999999989
 11
2.405066566393288
 21
-0.2689894209379414
 31
0.2599999999999989
210
0.0
220
-1.0
230
6.123233995736766E-17
1001
ACAD_STEPID
1071
       98
  0
LINE
  5
DE8
330
1F
100
AcDbEntity
  8
0
100
AcDbLine
 10
11.40506656639328
 20
-0.2689894209379414
 30
0.259999999999998
 11
11.40506656639328
 21
-0.2689894209379415
 31
-0.0000000000000018
210
0.0
220
-1.0
230
6.123233995736766E-17
1001
ACAD_STEPID
1071
       78
  0
LINE
  5
DE9
330
1F
100
AcDbEntity
  8
0
100
AcDbLine
 10
11.40506656639328
 20
-0.2689894209379415
 30
-0.0000000000000018
 11
12.40506656639328
 21
-0.2689894209379415
 31
-0.0000000000000018
210
0.0
220
-1.0
230
6.123233995736766E-17
1001
ACAD_STEPID
1071
       78
  0
LINE
  5
DEA
330
1F
100
AcDbEntity
  8
0
100
AcDbLine
 10
12.40506656639328
 20
-0.2689894209379414
 30
0.259999999999998
 11
12.40506656639328
 21
-0.2689894209379415
 31
-0.0000000000000018
210
0.0
220
-1.0
230
6.123233995736766E-17
1001
ACAD_STEPID
1071
       78
  0
LINE
  5
DEB
330
1F
100
AcDbEntity
  8
0
100
AcDbLine
 10
11.40506656639328
 20
-0.2689894209379414
 30
0.259999999999998
 11
12.40506656639328
 21
-0.2689894209379414
 31
0.259999999999998
210
0.0
220
-1.0
230
6.123233995736766E-17
1001
ACAD_STEPID
1071
       78
  0
LINE
  5
DEC
330
1F
100
AcDbEntity
  8
0
100
AcDbLine
 10
13.40506656639328
 20
-0.2689894209379414
 30
0.259999999999998
 11
13.40506656639328
 21
-0.2689894209379415
 31
-0.0000000000000018
210
0.0
220
-1.0
230
6.123233995736766E-17
1001
ACAD_STEPID
1071
       79
  0
LINE
  5
DED
330
1F
100
AcDbEntity
  8
0
100
AcDbLine
 10
13.40506656639328
 20
-0.2689894209379415
 30
-0.0000000000000018
 11
14.40506656639328
 21
-0.2689894209379415
 31
-0.0000000000000018
210
0.0
220
-1.0
230
6.123233995736766E-17
1001
ACAD_STEPID
1071
       79
  0
LINE
  5
DEE
330
1F
100
AcDbEntity
  8
0
100
AcDbLine
 10
14.40506656639328
 20
-0.2689894209379414
 30
0.259999999999998
 11
14.40506656639328
 21
-0.2689894209379415
 31
-0.0000000000000018
210
0.0
220
-1.0
230
6.123233995736766E-17
1001
ACAD_STEPID
1071
       79
  0
LINE
  5
DEF
330
1F
100
AcDbEntity
  8
0
100
AcDbLine
 10
13.40506656639328
 20
-0.2689894209379414
 30
0.259999999999998
 11
14.40506656639328
 21
-0.2689894209379414
 31
0.259999999999998
210
0.0
220
-1.0
230
6.123233995736766E-17
1001
ACAD_STEPID
1071
       79
  0
LINE
  5
DF0
330
1F
100
AcDbEntity
  8
0
100
AcDbLine
 10
15.40506656639328
 20
-0.2689894209379414
 30
0.259999999999998
 11
15.40506656639328
 21
-0.2689894209379415
 31
-0.0000000000000018
210
0.0
220
-1.0
230
6.123233995736766E-17
1001
ACAD_STEPID
1071
       80
  0
LINE
  5
DF1
330
1F
100
AcDbEntity
  8
0
100
AcDbLine
 10
15.40506656639328
 20
-0.2689894209379415
 30
-0.0000000000000018
 11
16.40506656639329
 21
-0.2689894209379415
 31
-0.0000000000000018
210
0.0
220
-1.0
230
6.123233995736766E-17
1001
ACAD_STEPID
1071
       80
  0
LINE
  5
DF2
330
1F
100
AcDbEntity
  8
0
100
AcDbLine
 10
16.40506656639329
 20
-0.2689894209379414
 30
0.259999999999998
 11
16.40506656639329
 21
-0.2689894209379415
 31
-0.0000000000000018
210
0.0
220
-1.0
230
6.123233995736766E-17
1001
ACAD_STEPID
1071
       80
  0
LINE
  5
DF3
330
1F
100
AcDbEntity
  8
0
100
AcDbLine
 10
15.40506656639328
 20
-0.2689894209379414
 30
0.259999999999998
 11
16.40506656639329
 21
-0.2689894209379414
 31
0.259999999999998
210
0.0
220
-1.0
230
6.123233995736766E-17
1001
ACAD_STEPID
1071
       80
  0
LINE
  5
DF4
330
1F
100
AcDbEntity
  8
0
100
AcDbLine
 10
17.40506656639328
 20
-0.2689894209379414
 30
0.259999999999998
 11
17.40506656639328
 21
-0.2689894209379415
 31
-0.0000000000000018
210
0.0
220
-1.0
230
6.123233995736766E-17
1001
ACAD_STEPID
1071
       81
  0
LINE
  5
DF5
330
1F
100
AcDbEntity
  8
0
100
AcDbLine
 10
17.40506656639328
 20
-0.2689894209379415
 30
-0.0000000000000018
 11
18.40506656639328
 21
-0.2689894209379415
 31
-0.0000000000000018
210
0.0
220
-1.0
230
6.123233995736766E-17
1001
ACAD_STEPID
1071
       81
  0
LINE
  5
DF6
330
1F
100
AcDbEntity
  8
0
100
AcDbLine
 10
18.40506656639328
 20
-0.2689894209379414
 30
0.259999999999998
 11
18.40506656639328
 21
-0.2689894209379415
 31
-0.0000000000000018
210
0.0
220
-1.0
230
6.123233995736766E-17
1001
ACAD_STEPID
1071
       81
  0
LINE
  5
DF7
330
1F
100
AcDbEntity
  8
0
100
AcDbLine
 10
17.40506656639328
 20
-0.2689894209379414
 30
0.259999999999998
 11
18.40506656639328
 21
-0.2689894209379414
 31
0.259999999999998
210
0.0
220
-1.0
230
6.123233995736766E-17
1001
ACAD_STEPID
1071
       81
  0
LINE
  5
DF8
330
1F
100
AcDbEntity
  8
0
100
AcDbLine
 10
19.40506656639329
 20
-0.2689894209379414
 30
0.259999999999998
 11
19.40506656639329
 21
-0.2689894209379415
 31
-0.0000000000000018
210
0.0
220
-1.0
230
6.123233995736766E-17
1001
ACAD_STEPID
1071
       82
  0
LINE
  5
DF9
330
1F
100
AcDbEntity
  8
0
100
AcDbLine
 10
19.40506656639329
 20
-0.2689894209379415
 30
-0.0000000000000018
 11
20.40506656639329
 21
-0.2689894209379415
 31
-0.0000000000000018
210
0.0
220
-1.0
230
6.123233995736766E-17
1001
ACAD_STEPID
1071
       82
  0
LINE
  5
DFA
330
1F
100
AcDbEntity
  8
0
100
AcDbLine
 10
20.40506656639329
 20
-0.2689894209379414
 30
0.259999999999998
 11
20.40506656639329
 21
-0.2689894209379415
 31
-0.0000000000000018
210
0.0
220
-1.0
230
6.123233995736766E-17
1001
ACAD_STEPID
1071
       82
  0
LINE
  5
DFB
330
1F
100
AcDbEntity
  8
0
100
AcDbLine
 10
19.40506656639329
 20
-0.2689894209379414
 30
0.259999999999998
 11
20.40506656639329
 21
-0.2689894209379414
 31
0.259999999999998
210
0.0
220
-1.0
230
6.123233995736766E-17
1001
ACAD_STEPID
1071
       82
  0
LINE
  5
DFC
330
1F
100
AcDbEntity
  8
0
100
AcDbLine
 10
21.40506656639329
 20
-0.2689894209379414
 30
0.259999999999998
 11
21.40506656639329
 21
-0.2689894209379415
 31
-0.0000000000000018
210
0.0
220
-1.0
230
6.123233995736766E-17
1001
ACAD_STEPID
1071
       83
  0
LINE
  5
DFD
330
1F
100
AcDbEntity
  8
0
100
AcDbLine
 10
21.40506656639329
 20
-0.2689894209379415
 30
-0.0000000000000018
 11
22.40506656639329
 21
-0.2689894209379415
 31
-0.0000000000000018
210
0.0
220
-1.0
230
6.123233995736766E-17
1001
ACAD_STEPID
1071
       83
  0
LINE
  5
DFE
330
1F
100
AcDbEntity
  8
0
100
AcDbLine
 10
22.40506656639329
 20
-0.2689894209379414
 30
0.259999999999998
 11
22.40506656639329
 21
-0.2689894209379415
 31
-0.0000000000000018
210
0.0
220
-1.0
230
6.123233995736766E-17
1001
ACAD_STEPID
1071
       83
  0
LINE
  5
DFF
330
1F
100
AcDbEntity
  8
0
100
AcDbLine
 10
21.40506656639329
 20
-0.2689894209379414
 30
0.259999999999998
 11
22.40506656639329
 21
-0.2689894209379414
 31
0.259999999999998
210
0.0
220
-1.0
230
6.123233995736766E-17
1001
ACAD_STEPID
1071
       83
  0
LINE
  5
E00
330
1F
100
AcDbEntity
  8
0
100
AcDbLine
 10
23.40506656639328
 20
-0.2689894209379414
 30
0.259999999999998
 11
23.40506656639328
 21
-0.2689894209379415
 31
-0.0000000000000018
210
0.0
220
-1.0
230
6.123233995736766E-17
1001
ACAD_STEPID
1071
       84
  0
LINE
  5
E01
330
1F
100
AcDbEntity
  8
0
100
AcDbLine
 10
23.40506656639328
 20
-0.2689894209379415
 30
-0.0000000000000018
 11
24.40506656639329
 21
-0.2689894209379415
 31
-0.0000000000000018
210
0.0
220
-1.0
230
6.123233995736766E-17
1001
ACAD_STEPID
1071
       84
  0
LINE
  5
E02
330
1F
100
AcDbEntity
  8
0
100
AcDbLine
 10
24.40506656639329
 20
-0.2689894209379414
 30
0.259999999999998
 11
24.40506656639329
 21
-0.2689894209379415
 31
-0.0000000000000018
210
0.0
220
-1.0
230
6.123233995736766E-17
1001
ACAD_STEPID
1071
       84
  0
LINE
  5
E03
330
1F
100
AcDbEntity
  8
0
100
AcDbLine
 10
23.40506656639328
 20
-0.2689894209379414
 30
0.259999999999998
 11
24.40506656639329
 21
-0.2689894209379414
 31
0.259999999999998
210
0.0
220
-1.0
230
6.123233995736766E-17
1001
ACAD_STEPID
1071
       84
  0
LINE
  5
E04
330
1F
100
AcDbEntity
  8
0
100
AcDbLine
 10
0.4050665663932889
 20
-0.2689894209379415
 30
-0.0000000000000009
 11
0.4050665663932889
 21
-0.2689894209379414
 31
0.2599999999999989
210
0.0
220
-1.0
230
6.123233995736766E-17
1001
ACAD_STEPID
1071
       94
  0
LINE
  5
E05
330
1F
100
AcDbEntity
  8
0
100
AcDbLine
 10
0.4050665663932889
 20
-0.2689894209379414
 30
0.2599999999999989
 11
1.405066566393289
 21
-0.2689894209379414
 31
0.2599999999999989
210
0.0
220
-1.0
230
6.123233995736766E-17
1001
ACAD_STEPID
1071
       94
  0
LINE
  5
E06
330
1F
100
AcDbEntity
  8
0
100
AcDbLine
 10
1.405066566393289
 20
-0.2689894209379415
 30
-0.0000000000000009
 11
1.405066566393289
 21
-0.2689894209379414
 31
0.2599999999999989
210
0.0
220
-1.0
230
6.123233995736766E-17
1001
ACAD_STEPID
1071
       94
  0
LINE
  5
E07
330
1F
100
AcDbEntity
  8
0
100
AcDbLine
 10
0.4050665663932889
 20
-0.2689894209379415
 30
-0.0000000000000009
 11
1.405066566393289
 21
-0.2689894209379415
 31
-0.0000000000000009
210
0.0
220
-1.0
230
6.123233995736766E-17
1001
ACAD_STEPID
1071
       94
  0
LINE
  5
E08
330
1F
100
AcDbEntity
  8
0
100
AcDbLine
 10
12.40506656639328
 20
-0.2689894209379415
 30
-0.0000000000000018
 11
12.40506656639328
 21
-0.2689894209379414
 31
0.259999999999998
210
0.0
220
-1.0
230
6.123233995736766E-17
1001
ACAD_STEPID
1071
       89
  0
LINE
  5
E09
330
1F
100
AcDbEntity
  8
0
100
AcDbLine
 10
12.40506656639328
 20
-0.2689894209379414
 30
0.259999999999998
 11
13.40506656639327
 21
-0.2689894209379414
 31
0.259999999999998
210
0.0
220
-1.0
230
6.123233995736766E-17
1001
ACAD_STEPID
1071
       89
  0
LINE
  5
E0A
330
1F
100
AcDbEntity
  8
0
100
AcDbLine
 10
13.40506656639327
 20
-0.2689894209379415
 30
-0.0000000000000018
 11
13.40506656639327
 21
-0.2689894209379414
 31
0.259999999999998
210
0.0
220
-1.0
230
6.123233995736766E-17
1001
ACAD_STEPID
1071
       89
  0
LINE
  5
E0B
330
1F
100
AcDbEntity
  8
0
100
AcDbLine
 10
12.40506656639328
 20
-0.2689894209379415
 30
-0.0000000000000018
 11
13.40506656639327
 21
-0.2689894209379415
 31
-0.0000000000000018
210
0.0
220
-1.0
230
6.123233995736766E-17
1001
ACAD_STEPID
1071
       89
  0
LINE
  5
E0C
330
1F
100
AcDbEntity
  8
0
100
AcDbLine
 10
14.40506656639328
 20
-0.2689894209379415
 30
-0.0000000000000018
 11
14.40506656639328
 21
-0.2689894209379414
 31
0.259999999999998
210
0.0
220
-1.0
230
6.123233995736766E-17
1001
ACAD_STEPID
1071
       90
  0
LINE
  5
E0D
330
1F
100
AcDbEntity
  8
0
100
AcDbLine
 10
14.40506656639328
 20
-0.2689894209379414
 30
0.259999999999998
 11
15.40506656639327
 21
-0.2689894209379414
 31
0.259999999999998
210
0.0
220
-1.0
230
6.123233995736766E-17
1001
ACAD_STEPID
1071
       90
  0
LINE
  5
E0E
330
1F
100
AcDbEntity
  8
0
100
AcDbLine
 10
15.40506656639327
 20
-0.2689894209379415
 30
-0.0000000000000018
 11
15.40506656639327
 21
-0.2689894209379414
 31
0.259999999999998
210
0.0
220
-1.0
230
6.123233995736766E-17
1001
ACAD_STEPID
1071
       90
  0
LINE
  5
E0F
330
1F
100
AcDbEntity
  8
0
100
AcDbLine
 10
14.40506656639328
 20
-0.2689894209379415
 30
-0.0000000000000018
 11
15.40506656639327
 21
-0.2689894209379415
 31
-0.0000000000000018
210
0.0
220
-1.0
230
6.123233995736766E-17
1001
ACAD_STEPID
1071
       90
  0
LINE
  5
E10
330
1F
100
AcDbEntity
  8
0
100
AcDbLine
 10
16.40506656639329
 20
-0.2689894209379415
 30
-0.0000000000000018
 11
16.40506656639329
 21
-0.2689894209379414
 31
0.259999999999998
210
0.0
220
-1.0
230
6.123233995736766E-17
1001
ACAD_STEPID
1071
       91
  0
LINE
  5
E11
330
1F
100
AcDbEntity
  8
0
100
AcDbLine
 10
16.40506656639329
 20
-0.2689894209379414
 30
0.259999999999998
 11
17.40506656639328
 21
-0.2689894209379414
 31
0.259999999999998
210
0.0
220
-1.0
230
6.123233995736766E-17
1001
ACAD_STEPID
1071
       91
  0
LINE
  5
E12
330
1F
100
AcDbEntity
  8
0
100
AcDbLine
 10
17.40506656639328
 20
-0.2689894209379415
 30
-0.0000000000000018
 11
17.40506656639328
 21
-0.2689894209379414
 31
0.259999999999998
210
0.0
220
-1.0
230
6.123233995736766E-17
1001
ACAD_STEPID
1071
       91
  0
LINE
  5
E13
330
1F
100
AcDbEntity
  8
0
100
AcDbLine
 10
16.40506656639329
 20
-0.2689894209379415
 30
-0.0000000000000018
 11
17.40506656639328
 21
-0.2689894209379415
 31
-0.0000000000000018
210
0.0
220
-1.0
230
6.123233995736766E-17
1001
ACAD_STEPID
1071
       91
  0
LINE
  5
E14
330
1F
100
AcDbEntity
  8
0
100
AcDbLine
 10
18.40506656639328
 20
-0.2689894209379415
 30
-0.0000000000000018
 11
18.40506656639328
 21
-0.2689894209379414
 31
0.259999999999998
210
0.0
220
-1.0
230
6.123233995736766E-17
1001
ACAD_STEPID
1071
       92
  0
LINE
  5
E15
330
1F
100
AcDbEntity
  8
0
100
AcDbLine
 10
18.40506656639328
 20
-0.2689894209379414
 30
0.259999999999998
 11
19.40506656639327
 21
-0.2689894209379414
 31
0.259999999999998
210
0.0
220
-1.0
230
6.123233995736766E-17
1001
ACAD_STEPID
1071
       92
  0
LINE
  5
E16
330
1F
100
AcDbEntity
  8
0
100
AcDbLine
 10
19.40506656639327
 20
-0.2689894209379415
 30
-0.0000000000000018
 11
19.40506656639327
 21
-0.2689894209379414
 31
0.259999999999998
210
0.0
220
-1.0
230
6.123233995736766E-17
1001
ACAD_STEPID
1071
       92
  0
LINE
  5
E17
330
1F
100
AcDbEntity
  8
0
100
AcDbLine
 10
18.40506656639328
 20
-0.2689894209379415
 30
-0.0000000000000018
 11
19.40506656639327
 21
-0.2689894209379415
 31
-0.0000000000000018
210
0.0
220
-1.0
230
6.123233995736766E-17
1001
ACAD_STEPID
1071
       92
  0
LINE
  5
E18
330
1F
100
AcDbEntity
  8
0
100
AcDbLine
 10
20.40506656639329
 20
-0.2689894209379415
 30
-0.0000000000000018
 11
20.40506656639329
 21
-0.2689894209379414
 31
0.259999999999998
210
0.0
220
-1.0
230
6.123233995736766E-17
1001
ACAD_STEPID
1071
       93
  0
LINE
  5
E19
330
1F
100
AcDbEntity
  8
0
100
AcDbLine
 10
20.40506656639329
 20
-0.2689894209379414
 30
0.259999999999998
 11
21.40506656639328
 21
-0.2689894209379414
 31
0.259999999999998
210
0.0
220
-1.0
230
6.123233995736766E-17
1001
ACAD_STEPID
1071
       93
  0
LINE
  5
E1A
330
1F
100
AcDbEntity
  8
0
100
AcDbLine
 10
21.40506656639328
 20
-0.2689894209379415
 30
-0.0000000000000018
 11
21.40506656639328
 21
-0.2689894209379414
 31
0.259999999999998
210
0.0
220
-1.0
230
6.123233995736766E-17
1001
ACAD_STEPID
1071
       93
  0
LINE
  5
E1B
330
1F
100
AcDbEntity
  8
0
100
AcDbLine
 10
20.40506656639329
 20
-0.2689894209379415
 30
-0.0000000000000018
 11
21.40506656639328
 21
-0.2689894209379415
 31
-0.0000000000000018
210
0.0
220
-1.0
230
6.123233995736766E-17
1001
ACAD_STEPID
1071
       93
  0
LINE
  5
E1C
330
1F
100
AcDbEntity
  8
0
100
AcDbLine
 10
22.40506656639329
 20
-0.2689894209379415
 30
-0.0000000000000018
 11
22.40506656639329
 21
-0.2689894209379414
 31
0.259999999999998
210
0.0
220
-1.0
230
6.123233995736766E-17
1001
ACAD_STEPID
1071
       96
  0
LINE
  5
E1D
330
1F
100
AcDbEntity
  8
0
100
AcDbLine
 10
22.40506656639329
 20
-0.2689894209379414
 30
0.259999999999998
 11
23.40506656639328
 21
-0.2689894209379414
 31
0.259999999999998
210
0.0
220
-1.0
230
6.123233995736766E-17
1001
ACAD_STEPID
1071
       96
  0
LINE
  5
E1E
330
1F
100
AcDbEntity
  8
0
100
AcDbLine
 10
23.40506656639328
 20
-0.2689894209379415
 30
-0.0000000000000018
 11
23.40506656639328
 21
-0.2689894209379414
 31
0.259999999999998
210
0.0
220
-1.0
230
6.123233995736766E-17
1001
ACAD_STEPID
1071
       96
  0
LINE
  5
E1F
330
1F
100
AcDbEntity
  8
0
100
AcDbLine
 10
22.40506656639329
 20
-0.2689894209379415
 30
-0.0000000000000018
 11
23.40506656639328
 21
-0.2689894209379415
 31
-0.0000000000000018
210
0.0
220
-1.0
230
6.123233995736766E-17
1001
ACAD_STEPID
1071
       96
  0
ENDSEC
  0
SECTION
  2
OBJECTS
  0
DICTIONARY
  5
C
330
0
100
AcDbDictionary
  3
ACAD_ASSOCPERSSUBENTMANAGER
350
8AA
  3
ACAD_BACKGROUND
350
7F3
  3
ACAD_CIP_PREVIOUS_PRODUCT_INFO
350
216
  3
ACAD_DETAILVIEWSTYLE
350
21B
  3
ACAD_GROUP
350
D
  3
ACAD_MLINESTYLE
350
17
  3
ACAD_SCALELIST
350
10C
  3
ACAD_SECTIONVIEWSTYLE
350
219
  3
ACDBVARIABLEDICTIONARY
350
5E
  3
APPDATA
350
AEE
  3
DWGPROPS
350
E20
  0
DICTIONARY
  5
1FF
330
2
100
AcDbDictionary
280
     1
  3
ACAD_LAYERSTATES
360
200
  0
DICTIONARY
  5
1CE
330
1F
100
AcDbDictionary
280
     1
  3
ACAD_SORTENTS
360
2A7
  0
ACAD_PROXY_OBJECT
  5
8AA
102
{ACAD_REACTORS
330
C
102
}
330
C
100
AcDbProxyObject
 90
      499
 91
      529
100
AcDbAssocPersSubentManager
 90
        1
 90
        3
 90
        0
 90
        2
 90
      100
 90
        0
 90
       75
 90
       26
 90
       27
 90
       28
 90
       29
 90
       30
 90
       31
 90
       32
 90
       33
 90
       34
 90
       35
 90
       36
 90
       37
 90
       38
 90
       39
 90
       40
 90
       41
 90
       42
 90
       43
 90
       44
 90
       45
 90
       46
 90
       47
 90
       48
 90
       49
 90
       50
 90
       51
 90
       52
 90
       53
 90
       54
 90
       55
 90
       56
 90
       57
 90
       58
 90
       59
 90
       60
 90
       61
 90
       62
 90
       63
 90
       64
 90
       65
 90
       66
 90
       67
 90
       68
 90
       69
 90
       70
 90
       71
 90
       72
 90
       73
 90
       74
 90
       75
 90
       76
 90
       77
 90
       78
 90
       79
 90
       80
 90
       81
 90
       82
 90
       83
 90
       84
 90
       85
 90
       86
 90
       87
 90
       88
 90
       89
 90
       90
 90
       91
 90
       92
 90
       93
 90
       94
 90
       95
 90
       96
 90
       97
 90
       98
 90
       99
 90
      100
 90
        0
290
     0
1001
ACAD
1000
AcadProxyRoundTripData
1071
      529
1071
  1310743
1070
     1
  0
DICTIONARY
  5
7F3
102
{ACAD_REACTORS
330
C
102
}
330
C
100
AcDbDictionary
  0
XRECORD
  5
216
102
{ACAD_REACTORS
330
C
102
}
330
C
100
AcDbXrecord
300
ACD
300
2017
300

  0
DICTIONARY
  5
21B
102
{ACAD_REACTORS
330
C
102
}
330
C
100
AcDbDictionary
  0
DICTIONARY
  5
D
102
{ACAD_REACTORS
330
C
102
}
330
C
100
AcDbDictionary
  0
DICTIONARY
  5
17
102
{ACAD_REACTORS
330
C
102
}
330
C
100
AcDbDictionary
  3
STANDARD
350
18
  0
DICTIONARY
  5
10C
102
{ACAD_REACTORS
330
C
102
}
330
C
100
AcDbDictionary
  0
DICTIONARY
  5
219
102
{ACAD_REACTORS
330
C
102
}
330
C
100
AcDbDictionary
  0
DICTIONARY
  5
5E
102
{ACAD_REACTORS
330
C
102
}
330
C
100
AcDbDictionary
  3
CENTEREXE
350
259
  3
CENTERLTYPEFILE
350
25A
  3
DIMASSOC
350
5F
  3
HIDETEXT
350
63
  3
INDEXCTL
350
A9D
  3
LOFTANG1
350
AA0
  3
LOFTANG2
350
AA1
  3
LONGITUDE
350
AA2
  3
SORTENTS
350
A9C
  0
DICTIONARY
  5
AEE
102
{ACAD_REACTORS
330
C
102
}
330
C
100
AcDbDictionary
  0
XRECORD
  5
E20
102
{ACAD_REACTORS
330
C
102
}
330
C
100
AcDbXrecord
  1
DWGPROPS COOKIE
  2

  3

  4

  6

  7

  8
David
  9

300
=
301
=
302
=
303
=
304
=
305
=
306
=
307
=
308
=
309
=
 40
0.0
 41
2458087.903981482
 42
2458089.80169794
  1

 90
        0
  0
DICTIONARY
  5
200
102
{ACAD_REACTORS
330
1FF
102
}
330
1FF
100
AcDbDictionary
  0
SORTENTSTABLE
  5
2A7
102
{ACAD_REACTORS
330
1CE
102
}
330
1CE
100
AcDbSortentsTable
330
1F
331
0
  5
815
331
0
  5
818
331
0
  5
81B
331
0
  5
81E
331
0
  5
821
331
0
  5
824
331
0
  5
890
331
0
  5
893
331
0
  5
896
331
0
  5
899
331
0
  5
89C
331
0
  5
89F
331
0
  5
8A2
331
0
  5
8A5
331
0
  5
8A8
331
0
  5
8C4
331
0
  5
8D8
331
0
  5
8F6
331
0
  5
90A
331
0
  5
91E
331
0
  5
9AF
331
0
  5
9E1
331
0
  5
9FF
331
0
  5
A13
331
0
  5
A27
  0
MLINESTYLE
  5
18
102
{ACAD_REACTORS
330
17
102
}
330
17
100
AcDbMlineStyle
  2
STANDARD
 70
     0
  3

 62
   256
 51
90.0
 52
90.0
 71
     2
 49
0.5
 62
   256
  6
BYLAYER
 49
-0.5
 62
   256
  6
BYLAYER
  0
DICTIONARYVAR
  5
259
102
{ACAD_REACTORS
330
5E
102
}
330
5E
100
DictionaryVariables
280
     0
  1
3.500000
  0
DICTIONARYVAR
  5
25A
102
{ACAD_REACTORS
330
5E
102
}
330
5E
100
DictionaryVariables
280
     0
  1
acadiso.lin
  0
DICTIONARYVAR
  5
5F
102
{ACAD_REACTORS
330
5E
102
}
330
5E
100
DictionaryVariables
280
     0
  1
2
  0
DICTIONARYVAR
  5
63
102
{ACAD_REACTORS
330
5E
102
}
330
5E
100
DictionaryVariables
280
     0
  1
1
  0
DICTIONARYVAR
  5
A9D
102
{ACAD_REACTORS
330
5E
102
}
330
5E
100
DictionaryVariables
280
     0
  1
0
  0
DICTIONARYVAR
  5
AA0
102
{ACAD_REACTORS
330
5E
102
}
330
5E
100
DictionaryVariables
280
     0
  1
1.570796
  0
DICTIONARYVAR
  5
AA1
102
{ACAD_REACTORS
330
5E
102
}
330
5E
100
DictionaryVariables
280
     0
  1
1.570796
  0
DICTIONARYVAR
  5
AA2
102
{ACAD_REACTORS
330
5E
102
}
330
5E
100
DictionaryVariables
280
     0
  1
-122.394000
  0
DICTIONARYVAR
  5
A9C
102
{ACAD_REACTORS
330
5E
102
}
330
5E
100
DictionaryVariables
280
     0
  1
127
  0
ENDSEC
  0
EOF
